E-Chords
Slaughter

Tortured Souls(Tabs)

Slaughter

e|-----------------------------------------------------| 
B|-----------------------------------------------------| 
G|-----------------------------------------------------| 
D|--------------------10---------------------10-10-10--| x4 
A|--------------------8----------------------8--8--8---| 
E|0-00000-00000-00000----0-00000-00000-00000-----------| 

e|-------------------------------------| 
B|-------------------------------------| 
G|-------------------------------------| 
D|-------5-4-5--------5-2--------7-8-7-| x6 
A|222222-3-2-3-222222-3-0-222222-5-6-5-| 
E|-------------------------------------| 

e|----------------------------------| 
B|----------------------------------| 
G|----------------------------------| 
D|-------------9-8--------------9-8-| x2 
A|-------------7-6--------------7-6-| 
E|0000-3--0000-----0000-3--0000-----| 

e|----------------------------------| 
B|----------------------------------| 
G|----------------------------------| 
D|-------------9-8--------------9-8-| 
A|-------------7-6--------------7-6-| 
E|000000000000-----000000000000-----| 

e|---------------| 
B|---------------| 
G|---------------| 
D|4-3-4-5--------| 
A|2-1-2-3-5--2--2| 
E|--------3--0--0| 



************************************ 

| /   slide up 
| \   slide down 
| h   hammer-on 
| p   pull-off 
| ~   vibrato 
| +   harmonic 
| x   Mute note 
| b   Bend 
| pb  Pre-bend 
| br  Bend release 
| pbr Pre-bend release 
| brb Bend release bend 

************************************ 

roll up this ad to continue

share this page

See Also: