E-Chords
Slaughter

Death Dealer(Tabs)

Slaughter

Key: D
Tune in D standard 

Riff A (8x) 

e|----------------------------------------------| 
B|----------------------------------------------| 
G|----------------------------------------------| 
D|-------------8-7------------------------------| 
A|666677778888-6-5------------------------------| 
E|444455556666----------------------------------| 

Riff B (4x) 

e|----------------------------------------------| 
B|----------------------------------------------| 
G|----------------------------------------------| 
D|----------------------------------------------| 
A|8-7-8-7-8-7-6---------------------------------| 
E|6-5-6-5-6-5-4---------------------------------| 

Riff C (2x) 

e|----------------------|------------------------| 
B|----------------------|------------------------| 
G|----------------------|------------------------| 
D|----------------------|------------------------| 
A|----------------------|------------------------| 
E|0000000000000000-232~-|0000000000000000-565~---| 

Listen to the song to get its structure. 

roll up this ad to continue

share this page

See Also: