E-Chords
Skegss

My Own Mess(Tabs)

Skegss

roll up this ad to continue

Key: Bm
Following the chords: 
Bm G D F# 
Bm G D F# Bb 
Bm G D F# Bb B 

Solo 

e|--------------------|---------------------| 
B|--------------------|---------------------| 
G|--------------------|---------------------| 
D|--------------------|0-0-0-0-2------------| 
A|2-2-2-2-0-----------|---------------------| 
E|----------3-3-3-3-3-|----------2-2-2-2-2--| 

e|--------------------|---------------------| 
B|--------------------|---------------------| 
G|--------------------|---------------------| 
D|--------------------|---------------------| 
A|2-2-2-2-0-----------|---------------------| 
E|----------3-3-3-3-3-|-2-2-2-2-2-2-2-6-6---| 

e|--------------------|---------------------| 
B|--------------------|---------------------| 
G|--------------------|---------------------| 
D|--------------------|---------------------| 
A|2-2-2-2-0-----------|---------------------| 
E|----------3-3-3-3-3-|-2-2-2-2-2-2-2-6-6-7-| 
share this page

See Also: