E-Chords
Skalmold

Kvadning(Tabs)

Skalmold

Key: A
| /   slide up 
| h   hammer-on 
| p   pull-off 
| pm   palm-mute 



Chords used: 
   A5   F5   C5   E5   F5   G5   A5   D5   B5 
                            
e|-------------------------------------------| 
B|-------------------------------------------| 
G|-2----10---5------------------------7----4-| 
D|-2----10---5----2----3----5----7----7----4-| 
A|-0----8----3----2----3----5----7----5----2-| 
E|----------------0----1----3----5-----------| 

Part 1 (Intro): 
e|-12-------------------10-12-10----------------10-------------0-| 
B|----10-10----10-12-13----------13-10-10-10-13----13-12-10------| 
G|----------12----------------------------------------------12---| 
D|---------------------------------------------------------------| 
A|---------------------------------------------------------------| 
E|---------------------------------------------------------------| 

e|-12-------------------10-12-10----------10---------------------| 
B|----10-10----10-12-13----------13-10-13----13-12----10----10---| 
G|----------12-------------------------------------12----12------| 
D|---------------------------------------------------------------| 
A|---------------------------------------------------------------| 
E|---------------------------------------------------------------| Play intro twice with clean tone and twice 
with distortion. 

Part 2: 
A5 x7 

e|---------| 
B|---------| 
G|---------| 
D|---0---9-| 
A|-0---7---| 
E|---------| 

A5              C5 
Ligg g eftir langa drauma, 

E5          F5 G5  A5 
leggur stirur, hug  -  ur  sljr. 

A5                  C5 
Hatri finn eg krftugt krauma, 

E5            F5  G5   A5 
kreystir hefnd er fyrr  -  um   sr. 
   
C5            D5 
Heiin br a httum blindum, 

E5       F5   G5 
horfi g mt svrtum   tindum, 

A5  C5    D5     F5 
Hel br  ar  mrgum myndum; 

D5      G5     E5    (Part 3) 
myrkur, kuldi, s og snjr. 

Part 3: 
e|-12-------------------10-12-10----------------10-------------0-| 
B|----10-10----10-12-13----------13-10-10-10-13----13-12-10------| 
G|----------12----------------------------------------------12---| 
D|---------------------------------------------------------------| 
A|---------------------------------------------------------------| 
E|---------------------------------------------------------------| 

e|-12-------------------10-12-10----------10----------------|         |------| 
B|----10-10----10-12-13----------13-10-13----13-12----10----|         |--10--| 
G|----------12-------------------------------------12----12-|         |------| 
D|----------------------------------------------------------|         |------| 
A|----------------------------------------------------------|         |------| 
E|----------------------------------------------------------| x2, Add |------| at the end of 2nd time. 

Part 4: 
A5              C5 
Heljarsl af himnum steyptist                                                                

E5       F5  G5   A5 
hafi af mr b       og   menn. 


A5              C5 
Hatri inn  hugann greyptist, 

E5       F5 G5  A5 
heldur mr  lf  -  i   enn. 

C5            D5 
Fleyjum num feigin grandi, 

E5        F5   G5 
finn g ig  sj og    landi. 

A5  C5    D5     F5 
Kem g til n forni fjandi, 

D5     G5    E5      (Part 5) 
fundir okkar nlgast senn. 

Part 5: 
e|-12-------------------10-12-10----------------10-------------0-| 
B|----10-10----10-12-13----------13-10-10-10-13----13-12-10------| 
G|----------12----------------------------------------------12---| 
D|---------------------------------------------------------------| 
A|---------------------------------------------------------------| 
E|---------------------------------------------------------------| 
                                                                                        
e|-12-------------------10-12-10----------10----------------|         |------| 
B|----10-10----10-12-13----------13-10-13----13-12----10----|         |--10--| 
G|----------12-------------------------------------12----12-|         |------| 
D|----------------------------------------------------------|         |------| 
A|----------------------------------------------------------|         |------| 
E|----------------------------------------------------------| x2, Add |------| at the end of 2nd time. 

e|-------10-------------------| 
B|-10-13----13-12----10----10-| 
G|----------------12----12----| 
D|----------------------------| 
A|----------------------------| 
E|----------------------------| 


Part 6: 
e|-2-2-2-2-2-2-0-----------0-0-0-0-0-0-2-0---|         \ 
B|---------------3-0-0-3-0-----------------0-|          \ 
G|-------------------------------------------|           | 
D|-------------------------------------------|           | 
A|-------------------------------------------|           | 
E|-------------------------------------------| x2        | 
                                                         | 
e|-0-0-0-0-0-0-2-0-2-|                                   | 
B|-------------------|                                   | 
G|-------------------|                                   | 
D|-------------------|                                   | 
A|-------------------|                                   | 
E|-------------------|                                   | 
                                                         | x2 (Clean sound 1st time,  
e|-0-0-0-0-0-0-2-3-2-|                                   | Distortion 2nd time) 
B|-------------------|                                   | 
G|-------------------|                                   | 
D|-------------------|                                   | 
A|-------------------|                                   | 
E|-------------------|                                   | 
                                                         | 
e|-0-0-0-0-0-0-2-3-2-0h2p0-----------------0-2-0-|       | 
B|-------------------------3-0-3-3-3-3-3-3-------|       | 
G|-----------------------------------------------|       | 
D|-----------------------------------------------|       | 
A|-----------------------------------------------|      / 
E|-----------------------------------------------|     / 

Part 7: 
e|-14-14-14-14-14-14-12----------------12-12-12-12-12-12-14-12----| 
B|----------------------15-12-12-15-12-------------------------12-| 
G|----------------------------------------------------------------| 
D|----------------------------------------------------------------| 
A|----------------------------------------------------------------| 
E|----------------------------------------------------------------| x2 

e|-12-12-12-12-12-12-14-12-14-| 
B|----------------------------| 
G|----------------------------| 
D|----------------------------| 
A|----------------------------| 
E|----------------------------| 

e|-12-12-12-12-12-12-14-15-14-| 
B|----------------------------| 
G|----------------------------| 
D|----------------------------| 
A|----------------------------| 
E|----------------------------| 

e|-12-12-12-12-12-12-14-15-14-12h14p12-------| 
B|-------------------------------------15-12-| 
G|-------------------------------------------| 
D|-------------------------------------------| 
A|-------------------------------------------| 
E|-------------------------------------------| 

e|-------------------12-14-|         |--12--| 
B|-15-15-15-15-15-15-------|         |------| 
G|-------------------------|         |------| 
D|-------------------------|         |------| 
A|-------------------------|         |------| 
E|-------------------------| x3, Add |------| at the end of the 3rd time. 

Part 8 (Solo): 
e|-----------------------------------7/14-| 
B|-3-2-3-5-3-2-3-2-----7-5-7-8-7-5-7------| 
G|-----------------2-4--------------------| 
D|----------------------------------------| 
A|----------------------------------------| 
E|----------------------------------------| x2 
                                
e|---------------7/14-| 
B|-5-5-5-5-7-8-7------| 
G|--------------------| 
D|--------------------| 
A|--------------------| 
E|--------------------| x2 

e|-----------------------------------7/14-| 
B|-5-5-5-5-7-8-7-5-3---3-3-3-3-5-7-5------| 
G|-------------------4--------------------| 
D|----------------------------------------| 
A|----------------------------------------| 
E|----------------------------------------| 

Part 9: 
e|-14-12-14-15-14-12-10-| 
B|----------------------| 
G|----------------------| 
D|----------------------| 
A|----------------------| 
E|----------------------| x3 

e|-12-10-9-------| 
B|---------10-12-| 
G|---------------| 
D|---------------| 
A|---------------| 
E|---------------| 

Part 10: 
e|-12-------------------10-12/17-| 
B|----10-10----10-12-13----------| 
G|----------12-------------------| 
D|-------------------------------| 
A|-------------------------------| 
E|-------------------------------| 

e|-12-------------------10-12-10----------------10-------------0-| 
B|----10-10----10-12-13----------13-10-10-10-13----13-12-10------| 
G|----------12----------------------------------------------12---| 
D|---------------------------------------------------------------| 
A|---------------------------------------------------------------| 
E|---------------------------------------------------------------| 

e|-12-------------------10-12-10----------10----------------|         |------| 
B|----10-10----10-12-13----------13-10-13----13-12----10----|         |--10--| 
G|----------12-------------------------------------12----12-|         |------| 
D|----------------------------------------------------------|         |------| 
A|----------------------------------------------------------|         |------| 
E|----------------------------------------------------------| x2, Add |------| at the end of 2nd time. 


A5            C5 
Morgunsl  miri heii, 

E5       F5  G5    A5 
minningarnar s   -   kja   . 

A5              C5 
Mikil er og rmm s reii, 

E5      F5   G5    A5 
rfur srin hat   -   ri   . 

C5             D5 
Eitt sinn tti flj a finna 


    E5       F5   G5 
sem falleg gtti barna     minna, 

   A5  C5     D5      F5 
en nna     hef g verk a vinna; 


D5    G5      E5         (Part 11) 
vega, blga, stinga' og fl. 


e|-12-------------------10-12-10----------------10-------------0-| \ 
B|----10-10----10-12-13----------13-10-10-10-13----13-12-10------|   \ 
G|----------12----------------------------------------------12---|    | 
D|---------------------------------------------------------------|    | 
A|---------------------------------------------------------------|    | 
E|---------------------------------------------------------------|    | 
Hldum n  feigarinnar fund etta feralag mun telja okkar daga.    | 
Hldum n  feigarinnar fund etta feralag er kllun vor og saga.   | 
e|-12-------------------10-12-10----------10----------|               | 
B|----10-10----10-12-13----------13-10-13----13-12----|               | 
G|----------12-------------------------------------12-|               | 
D|----------------------------------------------------|               | 
A|----------------------------------------------------|               | x2 
E|----------------------------------------------------| x2            | 
Vaskir menn,  vgamri stund og Valhll bur okkar.                | 
Vaskir menn,  vgamri stund og Valhll bur okkar                 | 
                                                                      | 
                                                                      | 
                                                                      | 
                                                                      | 
e|----------|                                                         | 
B|-10----10-|                                                         | 
G|----12----|                                                         | 
D|----------|                                                         | 
A|----------|                                                        / 
E|----------|                                                      / 
allra . 

roll up this ad to continue

share this page

See Also: