E-Chords
Six Pence None The Richer

Angeltread(Tabs)

Six Pence None The Richer

Key: C2
 
Intro Tab: 
C2      D      Dsus          C2       D    Dsus 
-0-------2--5--2-3-2-3-2---------------2-5-2-3-2-3-2------------- 
-3------------------------------------3-------------------------- 
-0----------------------------------0---------------------------- 
-2-------------------------------2------------------------------- 
-3----------------------------3---------------------------------- 
-0--------------------------------------------------------------- 
 
C2       D     Dsus      Am             C 
---------2-5-2-3-2-3-2----0------7-8-7----0---- 
-------3------------------1---------------1---- 
-----0--------------------2---------------0---- 
---2----------------------2---------------2---- 
-3------------------------0---------------3---- 
----------------------------------------------- 
C2 D Dsus Crickets rhythmically sing C2 D Dsus their mournful melodies C2 D of monotone by request Am C but they fail, they fail to soothe the mess C2 D Dsus hands rhythmically grope C2 D Dsus the sheets again for you C2 D and off-rhythm the time slows Am C to make moments eternal moments eternal Chorus Em G is this some kind of holy test Em G to stitch the treadmarks off my chest Em G to get up walk outside my head Em on a holy search for angeltread C2 D Dsus the moom within its ball C2 D Dsus washes white the darkened wall C2 D with a milky veil of silk Am C and I see, i see the spirits lilt C2 D Dsus now I\'ve lost my fear C2 D Dsus so i pray that you come near C2 D Dsus with a million sparkly lights Am C and help me, help me through the night CHORUS Solo: (I think this is the chord progression) Em D C D
----------------------------------- 
----------------------------------- 
--11-12-11-4-----7-2--------------- x2 
----------------------------------- 
----------------------------------- 
-----------------------------------
Am the milky prints of spirits near C i pray that they have lost their fear Am a million wisps of sparkly light C weaving through the walls Chorus

roll up this ad to continue

share this page

See Also: