E-Chords
Simon & Garfunkel

Felling Groovy(Tabs)

Simon & Garfunkel

roll up this ad to continue

Key: C
Intro: 

e|-------0---------------------------3---| 
B|-----1------3---------1-------0--------| 
G|----------0----0----0----0-------------|   2x spielen 
D|---------------------------------------| 
A|--3----3----2----2----0----0-----------| 
E|--------------------------------3----3-| 


1.Strophe: 

e|-------0---------------------------3-----------0----------------------3---------| 
B|-----1------3---------1-------0--------------1------3---------3--3--------------| 
G|----------0----0----0----0------------------------0----0----0-------------------|  2x spielen und beim 2ten 
D|---------------------------------------------------------------------------0----|  mal natürlich mit anderem 
A|--3----3----2----2----0----0--------------3----3----2----2----0----0------------|  Text. 
E|--------------------------------3----3----------------------------------3----3--| 
    Slow down, you   you  move  too  fast.  You got to make  the  morning  last 


Refrain: 

e|-------0---------------------------3-----------0----------------------3---------| 
B|-----1------3---------1-------0--------------1------3---------3--3--------------| 
G|----------0----0----0----0------------------------0----0----0-------------------|   
D|---------------------------------------------------------------------------0----|   
A|--3----3----2----2----0----0--------------3----3----2----2----0----0------------| 
E|--------------------------------3----3----------------------------------3----3--| 
                                             Da da da da da da da, feeling groovy. 

Alle anderen Strophen laufen nach dem selben Muster !. 



Die Base Line: 

eigentlich echt simpel, wird komplett vom daumen gepickt und läuft das ganze Lied durch. 



e|---------------------------------------| 
B|---------------------------------------| 
G|---------------------------------------| 
D|---------------------------------------| 
A|--3----3----2----2----0----0-----------|   
E|--------------------------------3----3-| 


Meldoie: 

Beim Fingerpicking werden die unteren drei Seiten ausschlieÃ?lich mit dem Daumen gepickt, die oberen drei werden  
von Zeige- Mittel- und Ringfinger gepickt. 

e|---------------------------------------| Ringfinger 
B|---------------------------------------| Mittelfinger 
G|---------------------------------------| Zeigefinger 
D|---------------------------------------| Daumen   
A|---------------------------------------| Daumen 
E|---------------------------------------| Daumen 

Akkorde, die während des Lieds mit der Linken Hand gegriffen werden, mit Takzeiten (4/4): 

e|-----------|-----------|-----------|---------3-| 
B|-1---------|--------3--|--1--------|-----------| 
G|-----------|-----------|-----------|-----------| 
D|-----2-----|-----------|-----------|-----------|    
A|---------3-|---2-------|-----------|---2-------|  
E|-----------|-----------|-----------|---------3-| 
       C                                   G 
       1           2           3           4 
 
share this page

See Also: