E-Chords
Silvertide

Ain't Coming Home(Tabs)

Silvertide

roll up this ad to continue

Ain't Coming Home 
by Silvertide 
 
in STANDARD TUNING 
 
Intro / Verse / Chorus 
|--0-----------------| 
|--0--2-2--3--2-2-2--| 
|--1--2-2--2--2-2-2--|repeat (alot) 
|--2--2-2--0--2-2-2--| 
|--2--0-0-----0-0-0--| 
|--0-----------------| 
 
Bridge 
|--3~--2~--|    |-----------------------------------| 
|--3~--3~--|    |-----------------------------------| 
|--0~--2~--|    |--2-2-2-2-2-2-2-2-2-2-2-2-2--------| 
|--0~--0~--| x3 |--2-2-2-2-2-2-2-2-2-2-2-2-2-(etc)--| 
|--2~------|    |--0-0-0-0-0-0-0-0-0-0-0-0-0--------| 
|--3~------|    |-----------------------------------| 
 
that's it! 
 
share this page

See Also: