E-Chords
Sidewalk Prophets

What A Glorious Night(Tabs)

Sidewalk Prophets

roll up this ad to continue

Intro 

e|---15 15 17 15 12---------12--------------15-15-17-15--12-------------(2x)---| 
B|-------------------15 15-----15--13-----------------------15-----------------| 
G|-----------------------------------12----------------------------------------| 
D|-----------------------------------------------------------------------------| 
A|-----------------------------------------------------------------------------| 
E|-----------------------------------------------------------------------------| 


Verse 

e|-5--5--5--5---5--5--5--5---5--5--5--5--5--5--5--5---5--5--5--5-------------| 
B|-5--5--5--5---6--6--6--6---5--5--5--5--5--5--5--5---6--6--6--6-------------| 
G|-5--5--5--5---5--5--5--5---5--5--5--5--5--5--5--5---5--5--5--5-------------| 
D|---------------------------------------------------------------------------| 
A|---------------------------------------------------------------------------| 
E|---------------------------------------------------------------------------| 

e|-5--5--5--5---5--5--5--5---5--5--5--5----------------------------------------| 
B|-8--8--8--8---6--6--6--6---5--5--5--5----------------------------------------| 
G|-5--5--5--5---5--5--5--5---5--5--5--5----------------------------------------| 
D|-----------------------------------------------------------------------------| 
A|-----------------------------------------------------------------------------| 
E|-----------------------------------------------------------------------------| 
 
share this page

See Also: