E-Chords
Sharks Keep Moving

Sailor(Tabs)

Sharks Keep Moving

Tuning:DADGBE 


    INTRO IS DISTORTED 
e|-10---7--------------------------------------------------------------------------------| 
B|----------10/12----7~-----------------INTRO ENDS ON --12b------------------------------| 
G|---------------------------------------------------------------------------------------| 
D|---------------------------------------------------------------------------------------| 
A|---------------------------------------------------------------------------------------| 
E|---------------------------------------------------------------------------------------| 
    PRE-VERSE 
e|-----------------------------------------------------------------------------------| 
B|-----------------------------12~---------------------------------------------------| 
G|---------------------12~-----------------------------------------------------------| 
D|--5/7----7/9-----12~-----12~------------9h12p9---7h9p7/-9--------------------------| 
A|-----------------------------------------------------------------------------------| 
E|-----------------------------------------------------------------------------------| 
     VERSE 
e|-------------------------------------------------| 
B|------8--7----8/-10-------------------------(0)--| 
G|--------------------------7~---------------------| 
D|----------------------------------9--9\--7\--5---| 
A|---7~------7~---(9)-------7~----------\----------| 
E|----------------------------------9--9\--7\--5---| 
   AFTER A COUPLE TIMES OF PLAYING THE VERSE 
e|-----------------------------------------------------------------------------------| 
B|------8--7-----8/-10----10/-12----12--12/--15--------------------------------------| 
G|-----------------------------------------------------------------------------------| 
D|-----------------------------------------------------------------------------------| 
A|---7~-------7~---(9)----9/--12----12--12/--14--------------------------------------| 
E|-----------------------------------------------------------------------------------| 
   PLAYED AFTER VERSE, AND STARTS AGAIN SOMEWHERE HALFWAY UNTIL THE END 
e|--------------------------------------------------------------------------------------| 
B|---------------------------------7~\--------------------------------------------------| 
G|---------------------------------7~\--------------------------------------------------| 
D|-----------------------2~--------9~\--------------------------------------------------| 
A|---------2~----3~------5~-------------------------------------------------------------| 
E|---2--2~----2~----2~---2~-------------------------------------------------------------| 

The last part is played until the end. 
Tabbed by ear. 
Enjoy! 
************************************ 

| /   slide up 
| \   slide down 
| h   hammer-on 
| p   pull-off 
| ~   vibrato 
| +   harmonic 
| x   Mute note 
| b   Bend 
| pb  Pre-bend 
| br  Bend release 
| pbr Pre-bend release 
| brb Bend release bend 

************************************ 

roll up this ad to continue

share this page

See Also: