E-Chords
Sharks Keep Moving

Cashmere, Washington(Tabs)

Sharks Keep Moving

Key: Am
Part 1 - Intro and verse 

(Guitar 1)  

e|---------------------------------------------------------------------------| 
B|-0-------0-----1p0h1p0h1p0h1p0h1p0h1p0-------------------------------------| 
G|-0---0-------0-0-----------------------------------------------------------| 
D|-2-2-------2---2-----------------------------------------------------------| 
A|-3-----3-------0-----------------------------------------------------------| 
E|---------------------------------------------------------------------------| 

(Guitar 2) Starts as guitar 1 hits the Am7 chord shape in the intro then repeats. 

e|---------0-------------0-----0---------------------------------------------| 
B|-0---------3p0---0h1-1---0h1-----------------------------------------------| 
G|---------------------------------------------------------------------------| 
D|---------------------------------------------------------------------------| 
A|---------------------------------------------------------------------------| 
E|---------------------------------------------------------------------------| 

Part 2 - Bridge 

(Guitar 1) The guitar skips playing this chord for two beats at the beginning, but then repeats it after that. 

e|-2-2-2-2-2-2-2-2-----------------------------------------------------------| 
B|-3-3-3-3-3-3-3-3-----------------------------------------------------------| 
G|-0-0-0-0-0-0-0-0-----------------------------------------------------------| 
D|---------------------------------------------------------------------------| 
A|---------------------------------------------------------------------------| 
E|---------------------------------------------------------------------------| 

(Guitar 2) 

e|---------------------------------------------------------------------------| 
B|---------------------------------------------------------------------------| 
G|-4-4-4-4-4-4-4-4-----------------------------------------------------------| 
D|-4-4-4-4-4-4-4-4-----------------------------------------------------------| 
A|-2-2-2-2-2-2-2-2-----------------------------------------------------------| 
E|-3-3-3-3-3-3-3-3-----------------------------------------------------------| 

Part 3 - Twinkly Instrumental 1 

(Guitar 1) 

e|-/7-----5-----5-----------3---3--------------------------------------------| 
B|---------------------------------------------------------------------------| 
G|----7p5---5-------5p4p0-0---0---0------------------------------------------| 
D|---------------------------------------------------------------------------| 
A|---------------------------------------------------------------------------| 
E|---------------------------------------------------------------------------| 

At one point, Guitar 1 slides up to the 10th fret instead of the going to the 5th, like this. 

e|-/7-----7/10---10-----------3---3------------------------------------------| 
B|---------------------------------------------------------------------------| 
G|----7p5-------------5p4p0-0---0---0----------------------------------------| 
D|---------------------------------------------------------------------------| 
A|---------------------------------------------------------------------------| 
E|---------------------------------------------------------------------------| 

(Guitar 2) 

e|---3---------3-------------------------------------------------------------| 
B|-1-h-3-0---1-h-3-0---------------------------------------------------------| 
G|---------------------------------------------------------------------------| 
D|---------------------------------------------------------------------------| 
A|---------------------------------------------------------------------------| 
E|---------------------------------------------------------------------------| 

Part 4a - Instrumental 2 

I suggest using some sort of distortion/fuzz/overdrive here to boost your sustain and make 
your guitar sound a little violin-esque for this repeating part. 

(Guitar 1) 

e|---------------------------------------------------------------------------| 
B|-3h5p3---3h5p3---3h5p3---3h5p3---3h5p3-------------------------------------| 
G|---------------------------------------------------------------------------| 
D|---------------------------------------------------------------------------| 
A|---------------------------------------------------------------------------| 
E|---------------------------------------------------------------------------| 

(Guitar 2) 

e|---------------------------------------------------------------------------| 
B|---------------------------------------------------------------------------| 
G|-4h5p4---4h5p4---4h5p4---4h5p4---4h5p4-------------------------------------| 
D|---------------------------------------------------------------------------| 
A|---------------------------------------------------------------------------| 
E|---------------------------------------------------------------------------| 

Part 4b - Instrumental 2 

At this point, if you turned an effect on for the last part, turn it off to go back 
to your jangly clean sound. 

(Guitar 1) This is also what keeps repeating when all other instruments stop playing/before 
heading into what I'm dubbing 'the interlude.'  

e|------5-------------5-------------5-------------5--------------------------| 
B|---------------------------------------------------------------------------| 
G|--0-------------0-------------0-------------0------------------------------| 
D|--4-----0h5p4---4-----0h5p4---4-----0h5p4---4-----0h5p4--------------------| 
A|---------------------------------------------------------------------------| 
E|---------------------------------------------------------------------------| 

(Guitar 2) 

e|---------------------------------------------------------------------------| 
B|---5---------------5-------------------------------------------------------| 
G|-0-----0---0-----0-----0---0-----------------------------------------------| 
D|-4-----4\2-2-----4-----4\2-2-----------------------------------------------| 
A|---------------------------------------------------------------------------| 
E|---------------------------------------------------------------------------| 

Part 5 - Interlude (similar to verse riff) 

(Guitar 1) 

e|---------------------------------------------------------------------------| 
B|-0-------0-----1p0h1p0h1p0h1p0h1p0h1p0-1-----1----------(3)-(1)p(0)--------| 
G|-0---0-------0-0-------------------------0h2---0---0---0---0---------------| 
D|-2-2-------2---2-----------------------------------------------------------| 
A|-3-----3-------0-----------------------------------------------------------| 
E|---------------------------------------------------------------------------| 

Right before leading into the next part of the song, I'm pretty sure the first guitar 
strums this G chord with a little bit of distortion/fuzz/overdrive. 

e|---------------------------------------------------------------------------| 
B|-0---0---0-----------------------------------------------------------------| 
G|-0---0---0-----------------------------------------------------------------| 
D|-0---0---0-----------------------------------------------------------------| 
A|-2---2---2-----------------------------------------------------------------| 
E|-3---3---3-----------------------------------------------------------------| 

(Guitar 2) This riff is a little bit different than before. 

e|---------0-------------0-------7-7-7---------3-----3-----------------------| 
B|-0---------3p0---0h1-1---1p0---0-0-0---0h1-1---0h1-------------------------| 
G|-------------------------------7-7-7---------------------------------------| 
D|---------------------------------------------------------------------------| 
A|---------------------------------------------------------------------------| 
E|---------------------------------------------------------------------------| 

Part 6 - Instrumental 2 redux 

So this part is the same riff as Part 4a (Instrumental 2), but after repeating it 
eight times, it changes to this: 

(Guitar 1) 

e|---------------------------------------------------------------------------| 
B|-3h5p3---3-3h5p3---3h5p3---3-3h5p3-----------------------------------------| 
G|---------------------------------------------------------------------------| 
D|---------------------------------------------------------------------------| 
A|---------------------------------------------------------------------------| 
E|---------------------------------------------------------------------------| 

(Guitar 2) 

e|---------------------------------------------------------------------------| 
B|---------------------------------------------------------------------------| 
G|-4h5p4---4-4h5p4---4h5p4---4-4h5p4-----------------------------------------| 
D|---------------------------------------------------------------------------| 
A|---------------------------------------------------------------------------| 
E|---------------------------------------------------------------------------| 

One of the guitars (I think the first) also plays something like this near the end of the repeats: 

e|-7-7-7---------------------------------------------------------------------| 
B|-8-8-8---------------------------------------------------------------------| 
G|-7-7-7---------------------------------------------------------------------| 
D|---------------------------------------------------------------------------| 
A|---------------------------------------------------------------------------| 
E|---------------------------------------------------------------------------| 

Part 7 - verse 2 

The bass plays a few notes before the guitars come in and then repeats as it did before. 

(Guitar 1) 

e|---------------------------------------------------------------------------| 
B|-1p0h1p0h1p0h1p0h1p0h1p0-0-------0-----------------------------------------| 
G|-0-----------------------0---0-------0-------------------------------------| 
D|-2-----------------------2-2-------2---------------------------------------| 
A|-0-----------------------3-----3-------------------------------------------| 
E|---------------------------------------------------------------------------| 

(Guitar 2) 

e|-----------------0-------------0-----0-------------------------------------| 
B|-0-----------------3p0---0h1-1---0h1---------------------------------------| 
G|---------------------------------------------------------------------------| 
D|---------------------------------------------------------------------------| 
A|---------------------------------------------------------------------------| 
E|---------------------------------------------------------------------------| 

And that's basically it. The ending has the verse riff repeating while the drums go 
through some sort of filter, but that should be easy to figure out. Guitar 1 just picks 
strings in the Am7 shape (without the B string first fret though, so it's more open), 
while Guitar 2 repeats part of its riff. Easy to hear and figure out, I think. 

I hope this tab helps you! 

************************************ 

| /   slide up 
| \   slide down 
| h   hammer-on 
| p   pull-off 
| ~   vibrato 
| +   harmonic 
| x   Mute note 
| b   Bend 
| pb  Pre-bend 
| br  Bend release 
| pbr Pre-bend release 
| brb Bend release bend 

************************************ 

roll up this ad to continue

share this page

See Also: