E-Chords
Self Defense Family

Turn The Fan On(Tabs)

Self Defense Family

 

verse 
e|---------------------------| 
B|---7-----------------------| 
G|-6-----6-------------------| 
D|-------------7-7-6---------| 
A|---------------------------| 
E|---------------------------| 

Chorus (repeat during ending) 
e|---------------------7-----||---------------------------| 
B|------------------------7--||---------------------------| 
G|-4--6--4---6--8--6---------||6--------------------------| 
D|---------------------------||---6--9--6-----------------| 
A|---------------------------||---------------------------| 
E|---------------------------||---------------------------| 

repeat until ending 
e|---------------------7-----||---------------------------| 
B|------------------------7--||---------------------------| 
G|-4--6--4---6--8--6---------||6--------------------------| 
D|---------------------------||---6--9--6-----------------| 
A|---------------------------||---------------------------| 
E|---------------------------||---------------------------| 

there is another guitar somewhere during the Choruses and ending, but it's too low in  
the mix to figure out. that's pretty much the whole song though. 

roll up this ad to continue

share this page

See Also: