E-Chords
Self Defense Family

Tithe Pig(Tabs)

Self Defense Family

Guitar 1  

e|---------------------------------------------------------------------------| 
B|----1--3p1---1----------1--3p1------------------------------------------------| 
G|-2---------2---2-0-2-2---------2-0--------------------------------------------| 
D|---------------------------------------------------------------------------| 
A|---------------------------------------------------------------------------| 
E|---------------------------------------------------------------------------| 

Guitar 2 

e|---------------------------------------------------------------------------| 
B|---------------------------------------------------------------------------| 
G|-2----------------2--------------------------------------------------------| 
D|-2----------------2--------------------------------------------------------| 
A|-0----------------0--------------------------------------------------------| 
E|---------------------------------------------------------------------------| 

Guitar 1 (00:58 - end) 

e|---------------------------------------------------------------------------| 
B|---1--3p1------------------------------------------------------------------| 
G|-2--------2--0-2--0-2------------------------------------------------------| 
D|---------------------------------------------------------------------------| 
A|---------------------------------------------------------------------------| 
E|---------------------------------------------------------------------------| 

Guitar 2 (00:58 - 1:58)         Guitar 2 (1:58 - End) 

e|---------------------------------------------------------------------------| 
B|---------------------------------------------------------------------------| 
G|-----------------------------2----This A Chord is played in a few different| 
D|-----------------------------2----rhythms until the end, each accenting it | 
A|-0-0-0-0-0-0-0-0-0-----------0----differently.-----------------------------| 
E|---------------------------------------------------------------------------| 



************************************ 

| /   slide up 
| \   slide down 
| h   hammer-on 
| p   pull-off 
| ~   vibrato 
| +   harmonic 
| x   Mute note 
| b   Bend 
| pb  Pre-bend 
| br  Bend release 
| pbr Pre-bend release 
| brb Bend release bend 

************************************ 

roll up this ad to continue

share this page

See Also: