E-Chords
Self Defense Family

Russian History(Tabs)

Self Defense Family

Very easy song to learn, consists of 2 sections only. 

Section 1 (Verse) 

  Variation 1                   Variation 2 
e|---------------------------------------------------------------------------| 
B|---------------------------------------------------------------------------| 
G|---------------------------------------------------------------------------| 
D|------5----------------------------5---------------------------------------| 
A|--5-----------------------------5------------------------------------------| 
E|--------3--0-------------------------3--5----------------------------------| 


Section 2 (Chorus) 
e|---------------0-----------------------------------------------------------| 
B|-3~------3~------3---------------------------------------------------------| 
G|-0~------0~--------0-------------------------------------------------------| 
D|-0~------0~----------------------------------------------------------------| 
A|---------------------------------------------------------------------------| 
E|---------------------------------------------------------------------------| 

roll up this ad to continue

share this page

See Also: