E-Chords
Sega

Sonic The Hedgehog Green Hill Zone(Tabs)

Sega

roll up this ad to continue

e:--------------------------------------------------| 
B:--------------------------------------------------| 
G:-7-5--7-5--7-5---8-7-5----5-7-8--5-7-8--8-7--7-8--| 
D:--------------------------------------------------| 
A:--------------------------------------------------| 
E:--------------------------------------------------| 

e:-9----9-8-9-8--------13-11--9-8-9-8---------------| 
B:---11---------9---11----------------9-------------| 
G:--------------------------------------------------| 
D:--------------------------------------------------| 
A:--------------------------------------------------| 
E:--------------------------------------------------| 

e:-9----9-8-9-8----6-6----6----6--------------------| 
B:---11---------9------7----9----9------------------| 
G:---------------------------------6----------------| 
D:--------------------------------------------------| 
A:--------------------------------------------------| 
E:--------------------------------------------------| 


e:--------------------------------------------------| 
B:-----6---------6----------------------------------| 
G:-6-6---8---6-8---9---6-8-9--6-8-10---66-5-33------| 
D:--------------------------------------------------| 
A:--------------------------------------------------| 
E:--------------------------------------------------| 
share this page

See Also: