E-Chords
Sean Danielsen

Beautiful Things(Tabs)

Sean Danielsen

Key: C#
Tuning: Drop C# 
                                                         * 
D#|---------------------------------------------------------------------------| 
A#|-------------------3-----3------3-----3-------------------4------7---------| 
F#|------0-----0------2-----2------3-----3------5-----5------5------7---------| 
C#|------5-----5-----------------3-----3--------5-----5----5------------------| 
G#|----5-----5------0-----0----1-----1--------3-----3----3--------5-----------| 
C#|--5-----5------0-----0-------------------3-----3-------------5-------------| 

D#|---------------------------------------------| 
A#|---------------------------------------------| 
F#|------0-----2-----3-----3-----0---0---3---0--| 
C#|------1-----3-----1-----1-----3---3----------|x3 
G#|----1-----3-----1-----1-----3----------------| 
C#|--1-----3-----1-----1-----3------------------| 


*Guitar2 
D#|--11--10------8------------------------------------------------------------| 
A#|----------11-----11--10--8-------------------------------------------------| 
F#|---------------------------------------------------------------------------| 
C#|---------------------------------------------------------------------------| 
G#|---------------------------------------------------------------------------| 
C#|---------------------------------------------------------------------------| 


Verse 
D#|---------------------------------------------------------------------------| 
A#|---------------------------------------------------------------------------| 
F#|--3-3-3-3-3-3-3-3-3-3-3-3-3-5-5-5-7-7-7-7-7-7-7-7-7-7-7-7-7-5-5-5----------| 
C#|--3-3-3-3-3-3-3-3-3-3-3-3-3-5-5-5-5-5-5-5-5-5-5-5-5-5-5-5-5-3-3-3----------| 
G#|--1-1-1-1-1-1-1-1-1-1-1-1-1-3-3-3-5-5-5-5-5-5-5-5-5-5-5-5-5-3-3-3----------| 
C#|----------------------------------5-5-5-5-5-5-5-5-5-5-5-5-5-3-3-3----------| 

D#|---------------------------------------------------------------------------| 
A#|---------------------------------------------------------------------------| 
F#|--3-3-3-3-3-3-3-3-3-3-3-3-3-5-5-5-7-7-7-7-7-7-7-7-5-5-5-5-5-5-5-5----------| 
C#|--3-3-3-3-3-3-3-3-3-3-3-3-3-5-5-5-5-5-5-5-5-5-5-5-3-3-3-3-3-3-3-3----------| 
G#|--1-1-1-1-1-1-1-1-1-1-1-1-1-3-3-3-5-5-5-5-5-5-5-5-3-3-3-3-3-3-3-3----------| 
C#|----------------------------------5-5-5-5-5-5-5-5-3-3-3-3-3-3-3-3----------| 


Chorus chords 
D#|-----------------------------------------------------------------| 
A#|-----------------------------------------------------------------| 
F#|--3------3------5-------7-------3-------3-------5----------------| 
C#|--1------3------3-------5-------1-------3-------3----------------| x2 
G#|--1------1------3-------5-------1-------1-------3----------------| 
C#|--1-------------3-------5-------1---------------3----------------| 

                                                         * 
D#|---------------------------------------------------------------------------| 
A#|-------------------3-----3------3-----3-------------------4------7---------| 
F#|------0-----0------2-----2------3-----3------5-----5------5------7---------| 
C#|------5-----5-----------------3-----3--------5-----5----5------------------| 
G#|----5-----5------0-----0----1-----1--------3-----3----3--------5-----------| 
C#|--5-----5------0-----0-------------------3-----3-------------5-------------| 

D#|---------------------------------------------| 
A#|---------------------------------------------| 
F#|------0-----2-----3-----3-----0---0---3---0--| 
C#|------1-----3-----1-----1-----3---3----------|x3 
G#|----1-----3-----1-----1-----3----------------| 
C#|--1-----3-----1-----1-----3------------------| 


Verse 
D#|---------------------------------------------------------------------------| 
A#|---------------------------------------------------------------------------| 
F#|--3-3-3-3-3-3-3-3-3-3-3-3-3-5-5-5-7-7-7-7-7-7-7-7-7-7-7-7-7-5-5-5----------| 
C#|--3-3-3-3-3-3-3-3-3-3-3-3-3-5-5-5-5-5-5-5-5-5-5-5-5-5-5-5-5-3-3-3----------| 
G#|--1-1-1-1-1-1-1-1-1-1-1-1-1-3-3-3-5-5-5-5-5-5-5-5-5-5-5-5-5-3-3-3----------| 
C#|----------------------------------5-5-5-5-5-5-5-5-5-5-5-5-5-3-3-3----------| 

D#|---------------------------------------------------------------------------| 
A#|---------------------------------------------------------------------------| 
F#|--3-3-3-3-3-3-3-3-3-3-3-3-3-5-5-5-7-7-7-7-7-7-7-7-5-5-5-5-5-5-5-5----------| 
C#|--3-3-3-3-3-3-3-3-3-3-3-3-3-5-5-5-5-5-5-5-5-5-5-5-3-3-3-3-3-3-3-3----------| 
G#|--1-1-1-1-1-1-1-1-1-1-1-1-1-3-3-3-5-5-5-5-5-5-5-5-3-3-3-3-3-3-3-3----------| 
C#|----------------------------------5-5-5-5-5-5-5-5-3-3-3-3-3-3-3-3----------| 


Chorus chords 
D#|-----------------------------------------------------------------| 
A#|-----------------------------------------------------------------| 
F#|--3------3------5-------7-------3-------3-------5----------------| 
C#|--1------3------3-------5-------1-------3-------3----------------| x2 
G#|--1------1------3-------5-------1-------1-------3----------------| 
C#|--1-------------3-------5-------1---------------3----------------| 


D#|---------------------------------------------------------------------------------------------------| 
A#|---------------------------------------------------------------------------------------------------| 
F#|------0-----0-----0-----0-----0-----0-----0-----0-----0-----0-----0-----0-----5-----5-----5-----5--| 
C#|------5-----5-----5-----5-----5-----5-----5-----5-----1-----1-----0-----0-----5-----5-----5-----5--| 
G#|----5-----5-----5-----5-----5-----5-----5-----5-----1-----1-----0-----0-----3-----3-----3-----3----| 
C#|--5-----5-----5-----5-----3-----3-----3-----3-----1-----1-----0-----0-----3-----3-----3-----3------| 

D#|---------------------------------------------------------------------------------------------------| 
A#|---------------------------------------------------------------------------------------------------| 
F#|------0-----0-----0-----0-----0-----0-----0-----0-----0-----0-----0-----0-----5-----5-----5-----5--| 
C#|------5-----5-----5-----5-----5-----5-----5-----5-----1-----1-----0-----0-----5-----5-----5-----5--| 
G#|----5-----5-----5-----5-----5-----5-----5-----5-----1-----1-----0-----0-----3-----3-----3-----3----| 
C#|--5-----5-----5-----5-----3-----3-----3-----3-----1-----1-----0-----0-----3-----3-----3-----3------| 

D#|---------------------------------------------------------------------------------------------------| 
A#|---------------------------------------------------------------------------------------------------| 
F#|------0-----0-----0-----0-----0-----0-----0-----0-----0-----0-----0-----0-----5-----5-----5-----5--| 
C#|------5-----5-----5-----5-----5-----5-----5-----5-----1-----1-----0-----0-----5-----5-----5-----5--| 
G#|----5-----5-----5-----5-----5-----5-----5-----5-----1-----1-----0-----0-----3-----3-----3-----3----| 
C#|--5-----5-----5-----5-----3-----3-----3-----3-----1-----1-----0-----0-----3-----3-----3-----3------| 


Verse 
D#|---------------------------------------------------------------------------| 
A#|---------------------------------------------------------------------------| 
F#|--3-3-3-3-3-3-3-3-3-3-3-3-3-5-5-5-7-7-7-7-7-7-7-7-7-7-7-7-7-5-5-5----------| 
C#|--3-3-3-3-3-3-3-3-3-3-3-3-3-5-5-5-5-5-5-5-5-5-5-5-5-5-5-5-5-3-3-3----------| 
G#|--1-1-1-1-1-1-1-1-1-1-1-1-1-3-3-3-5-5-5-5-5-5-5-5-5-5-5-5-5-3-3-3----------| 
C#|----------------------------------5-5-5-5-5-5-5-5-5-5-5-5-5-3-3-3----------| 

D#|---------------------------------------------------------------------------| 
A#|---------------------------------------------------------------------------| 
F#|--3-3-3-3-3-3-3-3-3-3-3-3-3-5-5-5-7-7-7-7-7-7-7-7-5-5-5-5-5-5-5-5----------| 
C#|--3-3-3-3-3-3-3-3-3-3-3-3-3-5-5-5-5-5-5-5-5-5-5-5-3-3-3-3-3-3-3-3----------| 
G#|--1-1-1-1-1-1-1-1-1-1-1-1-1-3-3-3-5-5-5-5-5-5-5-5-3-3-3-3-3-3-3-3----------| 
C#|----------------------------------5-5-5-5-5-5-5-5-3-3-3-3-3-3-3-3----------| 


Chorus chords 
D#|-----------------------------------------------------------------| 
A#|-----------------------------------------------------------------| 
F#|--3------3------5-------7-------3-------3-------5----------------| 
C#|--1------3------3-------5-------1-------3-------3----------------| x2 
G#|--1------1------3-------5-------1-------1-------3----------------| 
C#|--1-------------3-------5-------1---------------3----------------| 


                                                         * 
D#|---------------------------------------------------------------------------| 
A#|-------------------3-----3------3-----3-------------------4------7---------| 
F#|------0-----0------2-----2------3-----3------5-----5------5------7---------| 
C#|------5-----5-----------------3-----3--------5-----5----5------------------| 
G#|----5-----5------0-----0----1-----1--------3-----3----3--------5-----------| 
C#|--5-----5------0-----0-------------------3-----3-------------5-------------| 

D#|---------------------------------------------| 
A#|---------------------------------------------| 
F#|------0-----2-----3-----3-----0---0---3---0--| 
C#|------1-----3-----1-----1-----3---3----------| 
G#|----1-----3-----1-----1-----3----------------| 
C#|--1-----3-----1-----1-----3------------------| 

************************************ 

| /   slide up 
| \   slide down 
| h   hammer-on 
| p   pull-off 
| ~   vibrato 
| +   harmonic 
| x   Mute note 
| b   Bend 
| pb  Pre-bend 
| br  Bend release 
| pbr Pre-bend release 
| brb Bend release bend 

************************************ 

roll up this ad to continue

share this page

See Also: