E-Chords
Seabear

Lost Watch(Tabs)

Seabear

roll up this ad to continue


e|-----------1---------------1---------------1---------------1---------------| 
B|-----------1---------------1---------------1---------------1---------------| 
G|--------2-------2-------2-------2-------2-------2-------2-------2-------0--| 
D|---3---------------3---------------3---------------3---------------2-------| 
A|---------------------------------------------------------------------------| 
E|---------------------------------------------------------------------------| 

e|---0---------------0---------------0---------------0-----------------------| 
B|---1---------------1---------------1---------------1---------------6-------| 
G|--------0-------0-------0-------0-------0-------0-------0----------5-------| 
D|-----------2---------------2---------------2--------------------3-------3--| 
A|-----------------------------------------------------------5---------------| 
E|---------------------------------------------------------------------------| 

e|---------------------------------------------------------------------------| 
B|-----------6---------------6---------------6----------------6--------------| 
G|-----------5---------------5---------------5----------------7--------------| 
D|--------3-------3-------3-------3-------3-------5-------10-------10--------| 
A|---5---------------5---------------5---------------8-----------------8-----| 
E|---------------------------------------------------------------------------| 

e|---------------------------------------------------------------------------| 
B|-------6-----------------6-----------------6-------------------------------| 
G|-------7-----------------7-----------------7-------------------------------| 
D|---10-------10-------10-------10-------10-----10--7------------------------| 
A|----------------8-----------------8----------------------------------------| 
E|---------------------------------------------------------------------------| 


* Song repeats from here back to the beginning for every verse * 

- The last chord is: 


e|---5-----------------------------------------------------------------------| 
B|---6-----------------------------------------------------------------------| 
G|---5-----------------------------------------------------------------------| 
D|---7-----------------------------------------------------------------------| 
A|---8-----------------------------------------------------------------------| 
E|---5-----------------------------------------------------------------------| 
 
share this page

See Also: