E-Chords
Scott Stapp

The Great Divide 3 versao(Tabs)

Scott Stapp

Obs:esta tab eu coloquei ela de novo por que a outra eu nao consegui corrir pois por isso eu to aqui colocando ela de novo me desculpem!!! 
 
The Great Divide ? Scott Stapp 
 
Afinaçao - DADgbe 
 
intro  
Repete esta parte 6 vezes  
----2---5-2--2----2--2-5---2----2---2h3p2-------------2h3p2---------------|  
---3-------------3------3-----3---3---------3-3-2-3-3---------3-3-2-3-3---|  
--------------------------------------------------------------------------|  
--0---0-----0--0----------0--0----------------0-------------------0-------|  
--------------------------------------------------------------------------|  
--------------------------------------------------------------------------|  
  
Toque esta parte antes do refrao 
----------------------------| | 
----------------------------| | 
--7/6-6-6-6/7-7-7-7---------| | 
--x-x-x-x-x-x-x-x-x---------| | 
--5/4-4-4-4/5-5-5-5---------| | 
----------------------------| | 
                              |----------- 3 vezes 
----------------------------| | 
----------------------------| | 
--7/6-6-6-6/7-7-7-7/12-12-12| | 
--x-x-x-x-x-x-x-x-x-x-x-x-x-| | 
--7/4-4-4-4-5-5-5-5/10-10-10| | 
----------------------------| | 
  
refrao 
------------------------------------------------------------------------------|  
------------------------------------------------------------------------------|  
--7-7-7--7-6------------7-6------------7-6---------7-6--------------9-7-6h7p6-|  
--7-7-7--x-x--5-5-5-----x-x--9-9-9-----x-x--7-7-7--x-x------0-0-0-------------|  
--5-5-5--5-4--5-5-5-----5-4--9-9-9-----5-4--7-7-7--5-4------0-0-0-------------|  
--------------5-5-5----------9-9-9----------7-7-7-----------0-0-0-------------|  
                                                            . . . 
----------------------------|  
----------------------------| 
-----------9-7-6h7p6-7~-----|  
-0-0-0----------------------|  
-0-0-0----------------------|  
-0-0-0----------------------|  
 . . . 
 
Repete esta parte 6 vezes   
----2---5-2---2----2--5----2----2---2h3p2-------------2h3p2---------------|  
---3--------------3---3--3-----3---3---------3-3-2-3-3---------3-3-2-3-3--|  
--------------------------------------------------------------------------|  
--0---0-----0--0----------0--0----------------0-----------------0---------|  
--------------------------------------------------------------------------|  
--------------------------------------------------------------------------|  
  
Antes do refrao 
-----------------------------| | 
-----------------------------| | 
--7/6-6-6-6/7-7-7-7----------| | 
--x/x-x-x-x-x-x-x-x----------| | 
--5/4-4-4-4/5-5-5-5----------| | 
-----------------------------| | 
                               |------------- 4 vezes 
-----------------------------| | 
-----------------------------| | 
--7/6-6-6-6/7-7-7-7/12-12-12-| | 
--x-x-x-x-x-x-x-x-x-x-x-x-x--| | 
--5/4-4-4-4/5-5-5-5/10-10-10-| | 
-----------------------------| | 
refrao 
------------------------------------------------------------------------------|  
------------------------------------------------------------------------------|  
--7-7-7--7-6------------7-6------------7-6---------7-6--------------9-7-6h7p6-|  
--7-7-7--x-x--5-5-5-----x-x--9-9-9-----x-x--7-7-7--x-x------0-0-0-------------|  
--5-5-5--5-4--5-5-5-----5-4--9-9-9-----5-4--7-7-7--5-4------0-0-0-------------|  
--------------5-5-5----------9-9-9----------7-7-7-----------0-0-0-------------|  
                                                            . . . 
----------------------------|  
----------------------------| 
-----------9-7-6h7p6-7~-----|  
-0-0-0----------------------|  
-0-0-0----------------------|  
-0-0-0----------------------|  
 . . . 
 
Toque esta parte ate o Refrão   
--3p2p0--------3p2p0----3p2p0-----3p2p0-2---------------------|  
------------3---------3--------3-----------3------------------|  
--------------------------------------------------------------|  
--------------------------------------------------------------|  
--------------------------------------------------------------|  
--------------------------------------------------------------| 
 
  
refrao 
----------------------------------------------------------------------------| | 
----------------------------------------------------------------------------| | 
--7-7-7--7-6---------7-6---------7-6---------7-6--7-7-7--7-6---------7-6----| | 
--7-7-7--x-x--5-5-5--x-x--9-9-9--x-x--7-7-7--x-x--7-7-7--x-x--5-5-5--x-x----| | 
--5-5-5--5-4--5-5-5--5-4--9-9-9--5-4--7-7-7--5-4--5-5-5--5-4--5-5-5--5-4----| | 
--------------5-5-5-------9-9-9-------7-7-7-------------------5-5-5---------| | 
                                                                              |-- 3 vezes 
--------------------------|                                                   | 
--------------------------|                                                   | 
---------7-6---------7-6--|                                                   | 
--9-9-9--x-x--7-7-7--x-x--|                                                   | 
--9-9-9--5-4--7-7-7--5-4--|                                                   | 
--9-9-9-------7-7-7-------|                                                   | 
                           
 
Final do Refrão 
--------------------------------------------------------------| 
--------------------------------------------------------------| 
-----------9-7-6h7p6---------9-7-6h7p6---------9-7-6h7p6------| 
--0-0-0---------------0-0-0-------------0-0-0--------------7--| 
--0-0-0---------------0-0-0-------------0-0-0--------------5--| 
--0-0-0---------------0-0-0-------------0-0-0-----------------| 
  . . .               . . .             . . . 
 
 
 
Por Bruno Astoni 
 
Legenda ta tab 
 
.= palm muted 
 

roll up this ad to continue

share this page

See Also: