E-Chords
Scott Stapp

The Great Divide(Tabs)

Scott Stapp

Key: D
Afinação em D 
DADGBe 
 
 
intro 
Repete várias vezes 
----2---5-2---2----2--5----2----2---2h3p2-------------2h3p2---------------| 
---3--------------3---3--3-----3---3---------3-3-2-3-3---------3-3-2-3-3---| 
-----------------------------------------------------------------------------------| 
--0---0-----0--0----------0--0----------------0-------------------0------------| 
-----------------------------------------------------------------------------------| 
-----------------------------------------------------------------------------------| 
 
Então toca essa parte antes do Refrão 
----------------------------| 
----------------------------| 
--7/6-6-6-6/7-7-7-7-----|repete várias vezes 
--x/x-x-x-x-x-x-x-x-----| 
--5/4-4-4-4/5-5-5-5-----| 
----------------------------| 
 
Chorus 
---------------------------------------------------------------------------------| 
---------------------------------------------------------------------------------| 
--7-7-7--7-6-----------7-6----------7-6-----------7-6---------9-7-6h7p6-| 
--7-7-7--x-x--5-5-5--x-x--9-9-9--x-x--7-7-7--x-x--0-0-0--------------| 
--5-5-5--5-4--5-5-5--5-4--9-9-9--5-4--7-7-7--5-4--0-0-0--------------| 
----------------5-5-5---------9-9-9-------7-7-7---------0-0-0--------------| 
 
------------------------------| 
------------------------------| 
--------9-7-6h7p6-7~-----| 
-0-0-0----------------------| 
-0-0-0----------------------| 
-0-0-0----------------------| 
 
toca essa parte antes várias vezes  
----2---5-2---2----2--5----2----2---2h3p2-------------2h3p2---------------| 
---3--------------3---3--3-----3---3---------3-3-2-3-3---------3-3-2-3-3---| 
-----------------------------------------------------------------------------------| 
--0---0-----0--0----------0--0----------------0-------------------0------------| 
-----------------------------------------------------------------------------------| 
-----------------------------------------------------------------------------------| 
 
----------------------------| 
----------------------------| 
--7/6-6-6-6/7-7-7-7-----| 
--x/x-x-x-x-x-x-x-x-----|x4 
--5/4-4-4-4/5-5-5-5-----| 
----------------------------| 
 
Chorus 
-------------------------------------------------------------------------------------------| 
-------------------------------------------------------------------------------------------| 
--7-7-7--7-6-----------7-6----------7-6-----------7-6--7-7-7--7-6----------7-6----| 
--7-7-7--x-x--5-5-5--x-x--9-9-9--x-x--7-7-7--x-x--7-7-7--x-x--5-5-5--x-x----| 
--5-5-5--5-4--5-5-5--5-4--9-9-9--5-4--7-7-7--5-4--5-5-5--5-4--5-5-5--5-4----| 
-----------------5-5-5-------9-9-9---------7-7-7----------------------5-5-5----------| 
 
-------------------------------------------------------------------------------------------| 
-------------------------------------------------------------------------------------------| 
----------7-6-----------7-6---------9-7-6h7p6--------9-7-6h7p6-------9-7-6h7p6-7---| 
--9-9-9--x-x--7-7-7--x-x--0-0-0-------------0-0-0--------------0-0-0--------------7---| 
--9-9-9--5-4--7-7-7--5-4--0-0-0-------------0-0-0--------------0-0-0--------------5---| 
--9-9-9-------7-7-7---------0-0-0-------------0-0-0--------------0-0-0---------------| 
 
 
agora toca essa parte várias vezes 
--3p2p0-2----3p2p0-2---3p2p0-2--3p2p0-2--etc.---| 
------------3-------------3-----------3-----------3-------| 
------------------------------------------------------------| 
------------------------------------------------------------| 
------------------------------------------------------------| 
------------------------------------------------------------| 
 
Transcrita por Michel Vinicius 

roll up this ad to continue

share this page

See Also: