E-Chords
Scott Stapp

Sublime(Tabs)

Scott Stapp

Scott Stapp - Sublime                                      
tabbed by - tuluks 
--------------------- 


really like song. few guitars playing but dis closest tuning 
could find for one guitar. 

(if you risk taker, tune the #2 string to 'D' (D-G-D-G-'D'-d) 
and it will sounding better.  
this just suggesting, so am not be responsible for snappings) 


tuning: 
------- 

'Open G'(?)low to high - D-G-D-G-A-d 



Intro 
----- 

  (Acoustic) 
d|--0-0-0-0-0-0-0-0-0-0-0-0-0-0-0-0--|--0-0-0-0-0-0-0-0-0-0-0-0-0-0-0-0---| 
A|--0-0-0-0-0-0-0-0-0-0-0-0-0-0-0-0--|--0-0-0-0-0-0-0-0-0-0-0-0-0-0-0-0---| 
G|--7-7-6-6-7-7-6-6-7-7-6-6-7-7-6-6--|--7-7-6-6-7-7-6-6-7-7-6-6-7-7-6-6---| 
D|--4-4-4-4-4-4-4-4-4-4-4-4-4-4-4-4--|--7-7-7-7-7-7-7-7-7-7-7-7-7-7-7-7---| 
G|--4-4-4-4-4-4-4-4-4-4-4-4-4-4-4-4--|--x-x-x-x-x-x-x-x-x-x-x-x-x-x-x-x---| 
D|-----------------------------------|--7-7-7-7-7-7-7-7-7-7-7-7-7-7-7-7---| 

d|--0-0-0-0--0-0-0--0-0-0--0-0-0--0-0-0--| 
A|--0-0-0-0--0-0-0--0-0-0--0-0-0--0-0-0--| 
G|--9-0-0-11-0-0-12-0-0-14-0-0-16-0-0-0--| 
D|--0-0-0-0--0-0-0--0-0-0--0-0-0--0-0-0--| X2 
G|--0-0-0-0--0-0-0--0-0-0--0-0-0--0-0-0--| 
D|---------------------------------------| 

d|--0-0--0-0--0--0---0--0--0---0---| 
A|--0-0--0-0--0--0---0--0--0---0---| 
G|--7-7--9-9--11-11--12-12-12--11--| 
D|--X-X--X-X--X--X---X--X--X---X---| 
G|--7-7--9-9--11-11--12-12-12--11--| 
D|--0-0--0-0--0--0---0--0--0---0---| 

d|--0-0--0-0--0--0---0--0--0----------| 
A|--0-0--0-0--0--0---0--0--0----------| 
G|--7-7--9-9--11-11--12-12-12/19--19--| 
D|--X-X--X-X--X--X---X--X--X------X---| 
G|--7-7--9-9--11-11--12-12-12/19--19--| 
D|--0-0--0-0--0--0---0--0--0----------| 

Verse 
----- 

                         I will        follow you.... 
d|--0-0-0-0-0-0-0-0-0-0-0-0-0-0-0-0--|--0-0-0-0-0-0-0-0-0-0-0-0-0-0-0-0---| 
A|--0-0-0-0-0-0-0-0-0-0-0-0-0-0-0-0--|--0-0-0-0-0-0-0-0-0-0-0-0-0-0-0-0---| 
G|--7-7-6-6-7-7-6-6-7-7-6-6-7-7-6-6--|--7-7-6-6-7-7-6-6-7-7-6-6-7-7-6-6---| 
D|--4-4-4-4-4-4-4-4-4-4-4-4-4-4-4-4--|--7-7-7-7-7-7-7-7-7-7-7-7-7-7-7-7---| 
G|--4-4-4-4-4-4-4-4-4-4-4-4-4-4-4-4--|--x-x-x-x-x-x-x-x-x-x-x-x-x-x-x-x---| 
D|-----------------------------------|--7-7-7-7-7-7-7-7-7-7-7-7-7-7-7-7---| X4 

d|--0-0-0-0--0-0-0--0-0-0--0-0-0--0-0-0--| 
A|--0-0-0-0--0-0-0--0-0-0--0-0-0--0-0-0--| 
G|--9-0-0-11-0-0-12-0-0-14-0-0-16-0-0-0--| 
D|--0-0-0-0--0-0-0--0-0-0--0-0-0--0-0-0--| X2 
G|--0-0-0-0--0-0-0--0-0-0--0-0-0--0-0-0--| 
D|---------------------------------------| 

d|--0-0--0-0--0--0---0--0--0---0---| 
A|--0-0--0-0--0--0---0--0--0---0---| 
G|--7-7--9-9--11-11--12-12-12--11--| 
D|--X-X--X-X--X--X---X--X--X---X---| 
G|--7-7--9-9--11-11--12-12-12--11--| 
D|--0-0--0-0--0--0---0--0--0---0---| 

d|--0-0--0-0--0--0---0--0--0--------| 
A|--0-0--0-0--0--0---0--0--0--------| 
G|--7-7--9-9--11-11--12-12-12/19----| 
D|--X-X--X-X--X--X---X--X--X--------| 
G|--7-7--9-9--11-11--12-12-12/19----| 
D|--0-0--0-0--0--0---0--0--0--------| 


Chorus 
------ 

(w/distortion) 

 if we just....            we will find... 
d|--x-x-x--------------------------------| 
A|--x-x-x------x-x-----------------------| 
G|--x-x-x------x-x----------4-4--2-2-2---| 
D|--x-x-x--2-2-x-x--0-0-0---4-4--2-2-2---| 
G|---------4-4------2-2-2---4-4--2-2-2---| 
D|---------2-2------0-0-0----------------| 

   its not destiny..... 
d|-------------------------------------| 
A|-------------------------------------| 
G|--9-/11-11-11--12-12--14-14--/16-16~-| 
D|--0-----0--0---0--0---0--0-------0---| X2 
G|--0-----0--0---0--0---0--0-------0---| 
D|-------------------------------------| 

   sublime.... 
d|------------------------------| 
A|------------------------------| 
G|----------7/9-9-9-9-9-9/11~---| 
D|--0-0-0---x-x-x-x-x-x-x-x-----| 
G|--2-2-2---7/9-9-9-9-9-9/11~---| 
D|--0-0-0-----------------------| 


Bridge 
------ 

d|------------------------|--------------------| 
A|------------------------|--------------------| 
G|--7--9-/11--12--12-11---|--7--9-/11--12/19~--| 
D|------------------------|--------------------| X2 
G|------------------------|--------------------| 
D|------------------------|--------------------| 

   hush my darling.... 
d|------------------------|--------------------| 
A|------------------------|--------------------| 
G|--7--9-/11--12--12-11---|--7--9-/11--12/19~--| 
D|------------------------|--------------------| X4 
G|------------------------|--------------------| 
D|------------------------|--------------------| 

  sublime.... 
d|--------------------| 
A|--------------------| 
G|--7--9-/11--12/19~--| 
D|--------------------| X2 
G|--------------------| 
D|--------------------| 

d|------------------------|--------------------| 
A|------------------------|--------------------| 
G|--7--9-/11--12--12-11---|--7--9-/11--12/19~--| 
D|------------------------|--------------------| 
G|------------------------|--------------------| 
D|------------------------|--------------------| 



thats be it mate. just play parts at right time.  
hope you like it and enjoy playing it. 


kid©2007?  

roll up this ad to continue

share this page

See Also: