E-Chords
Scatman john

Im a scatman(Tabs)

Scatman john

    
 
Scatman john  
i am the scatman(Ski ba bop ba dop bop)  
   
 
   
  
 
  
more Scatman john, i am the scatman(Ski ba bop ba dop bop) tabs at GoogleTabs  
 
 
)  
  
 
  
E--8---------8-------------8---------8-----------------  
B----6--9-6-----6--9--6-9----6--9-6-----6--9--6-9------  
G------------------------------------------------------  
D------------------------------------------------------  
A------------------------------------------------------  
E------------------------------------------------------  
  
 ------------------------------------------------------  
 --11-----8----11-----8----8--11-----8----11-----8----8  
 ------8----8------8-----8--------8----8------8-----8--  
 ------------------------------------------------------  
 ------------------------------------------------------  
 ------------------------------------------------------  
  
 
  
 
  
E-----------------------------------------------------------------------  
B--6-6--6-6--6-9--8--9--8-6-----8--9--8-6-----9--8--9--8-------8--9--8-6  
G----------------------------5-------------5-------------8--------------  
D-----------------------------------------------------------8-----------  
A-----------------------------------------------------------------------  
E-----------------------------------------------------------------------  
  
 --------------------------------------------------------------------------  
 -6-6--6-6--6-9--8--9--8-6-----8--9--8-6-----9--8--9--8--------8--9--8-----  
 ----------------------------5-------------5-------------8-------------8---  
 -----------------------------------------------------------8-------------8  
 --------------------------------------------------------------------------  
 --------------------------------------------------------------------------  

roll up this ad to continue

share this page

See Also: