E-Chords
Sawyer Brown

My Baby's Gone(Tabs)

Sawyer Brown

 
e------------------------------ 
B-1--1----4-3-1---------------- 
G-----------------0--0----3-2-0 
D------------------------------ 
A------------------------------ 
E------------------------------ 
 
E------------------------------ 
B------------------------------ 
G--0--0------------------------ 
D--------1-0------------------- 
A-------------3--------1-2-3--- 
E----------------3--3---------- 
 
 

roll up this ad to continue

share this page

See Also: