E-Chords
Sawyer Brown

It Wasn't His Child(Tabs)

Sawyer Brown

(Verse tab, played repeatedly) 
|------2-0---|---------------|--------3----------0----0h2 
|----3-------|------3-------2|------0----------3---3----- 
|--2--------2|----4---------2|----0----------0--------0h2 
|0-----------|--4---------2--|--0----------0------------- 
|------------|2---------0----|--------------------------- 
|--------4---|---------------|3----------3---------------    
    
(In-between lick) 
||-------------2- 
||-0--2--3--5---- 
||-------------2- 
||--------------- 
||-------2--4---- 
||-3--3---------- 
   *starts at '...and late one winter night...' then back to verse 

roll up this ad to continue

share this page

See Also: