E-Chords
Saron Gas

Pig(Tabs)

Saron Gas

roll up this ad to continue

Key: D
Tuning: Drop D 
 This was done completly by ear, my favorite song off the 'Fragile' record by Saron Gas 
the song was a little complicated as the song is very different form de 'Disclairmer' vercion 
ok here it goes!!! 

Intro/Post-Chorus (Distortion) 

Guitar 1 (this is the entire time) 
e|---------------------------------------------------------------------------| 
B|---------------------------------------------------------------------------| 
G|---------------------------------------------------------------------------| 
D|-1--0---1--0-0--0-3-3---5--------------------------------------------------| 
A|-1--0---1--0-0--0-3-3---5--------------------------------------------------| 
D|-1--0---1--0-0--0-3-3---5--------------------------------------------------| 
   _      _       _____ 
   PM     PM        PM 
Guitar 2 (comes later) 
e|---------------------------------------------------------------------------| 
B|---------------------------------------------------------------------------| 
G|-8--/7---8--/7-7--7-/10-/7-/12---------------------------------------------| 
D|-x---x---x---x-x--x--x---x--x----------------------------------------------| 
A|-6--/5---6--/5-5--5-/8--/5-/10---------------------------------------------| 
D|---------------------------------------------------------------------------| 

e|---------------------------------------------------------------------------| 
B|---------------------------------------------------------------------------| 
G|-8--/7---8--/7-7--7-/10-/7-/12---------------------------------------------| 
D|-x---x---x---x-x--x--x---x--x----------------------------------------------| 
A|-6--/5---6--/5-5--5-/8--/5-/10---------------------------------------------| 
D|---------------------------------------------------------------------------| 
           __ 
           PM 

verse 1 (Clean then Distortion) 
e|-----------0----------------------------------------------------------------| 
B|--------------3-------------------------------------------------------------| 
G|-----------------3---2-------------------------------------------------------| 
D|-0--------------------------------------------------------------------------| 
A|-0--------------------------------------------------------------------------| 
D|-0--------------------------------------------------------------------------| 
  This is 2 times 
Then: 
e|---------------------------------------------------------------------------| 
B|-----------------------------------------5-5-5-5h3-3h5-5-5-----------------| 
G|--2h4-4---2h4-4----2-2h4-4----2h4-4---2------------------------------------| 
D|---------------------------------------------------------------------------| 
A|---------------------------------------------------------------------------| 
D|---------------------------------------------------------------------------| 
                                           ^About this part just hear the song and you will hear what i mean 
                                            because this is played until the Chorus,but sometimes it changes the 
                                            strumming 

Chorus(Distortion): 
e|---------------------------------------------------------------------------| 
B|---------------------------------------------------------------------------| 
G|--77777--888--101010--77777--888--5555-------------------------------------| 
D|--77777--888--101010--77777--888--5555-------------------------------------| 
A|--55555--666--8-8-8---55555--666--3333-------------------------------------| 
D|---------------------------------------------------------------------------| 
Not completly sure how many times each chord is played, but you undestand the idea 

Post Chorus: 
Same as intro 
Guitar 1 (this is the entire time) 
e|---------------------------------------------------------------------------| 
B|---------------------------------------------------------------------------| 
G|---------------------------------------------------------------------------| 
D|-1--0---1--0-0--0-3-3---5--------------------------------------------------| 
A|-1--0---1--0-0--0-3-3---5--------------------------------------------------| 
D|-1--0---1--0-0--0-3-3---5--------------------------------------------------| 
   _      _       _____ 
   PM     PM        PM 
Guitar 2 (comes later) 
e|---------------------------------------------------------------------------| 
B|---------------------------------------------------------------------------| 
G|-8--/7---8--/7-7--7-/10-/7-/12---------------------------------------------| 
D|-x---x---x---x-x--x--x---x--x----------------------------------------------| 
A|-6--/5---6--/5-5--5-/8--/5-/10---------------------------------------------| 
D|---------------------------------------------------------------------------| 

e|---------------------------------------------------------------------------| 
B|---------------------------------------------------------------------------| 
G|-8--/7---8--/7-7--7-/10-/7-/12---------------------------------------------| 
D|-x---x---x---x-x--x--x---x--x----------------------------------------------| 
A|-6--/5---6--/5-5--5-/8--/5-/10---------------------------------------------| 
D|---------------------------------------------------------------------------| 
           __ 
           PM 

verse 2 (Clean): 
Same as verse 1 
e|-----------0----------------------------------------------------------------| 
B|--------------3-------------------------------------------------------------| 
G|-----------------3---2-------------------------------------------------------| 
D|-0--------------------------------------------------------------------------| 
A|-0--------------------------------------------------------------------------| 
D|-0--------------------------------------------------------------------------| 
  This is 2 times 
Then: 
e|---------------------------------------------------------------------------| 
B|-----------------------------------------5-5-5-5h3-3h5-5-5-----------------| 
G|--2h4-4---2h4-4----2-2h4-4----2h4-4---2------------------------------------| 
D|---------------------------------------------------------------------------| 
A|---------------------------------------------------------------------------| 
D|---------------------------------------------------------------------------| 
                                           ^About this part just hear the song and you will hear what i mean 
                                            because this is played until the Chorus,but sometimes it changes the 
                                            strumming 
*There is a 2nd Guitar playing something, but i haven't tabbed out that, any tip, put a comment or something 

Chorus....again(Distortion): 
e|---------------------------------------------------------------------------| 
B|---------------------------------------------------------------------------| 
G|--77777--888--101010--77777--888--5555-------------------------------------| 
D|--77777--888--101010--77777--888--5555-------------------------------------| 
A|--55555--666--8-8-8---55555--666--3333-------------------------------------| 
D|---------------------------------------------------------------------------| 
Not completly sure how many times each chord is played, but you undestand the idea 

Post Chorus...again lol(Distortion): 
Same as intro 
Guitar 1 (this is the entire time) 
e|---------------------------------------------------------------------------| 
B|---------------------------------------------------------------------------| 
G|---------------------------------------------------------------------------| 
D|-1--0---1--0-0--0-3-3---5--------------------------------------------------| 
A|-1--0---1--0-0--0-3-3---5--------------------------------------------------| 
D|-1--0---1--0-0--0-3-3---5--------------------------------------------------| 
   _      _       _____ 
   PM     PM        PM 
Guitar 2 (comes later) 
e|---------------------------------------------------------------------------| 
B|---------------------------------------------------------------------------| 
G|-8--/7---8--/7-7--7-/10-/7-/12---------------------------------------------| 
D|-x---x---x---x-x--x--x---x--x----------------------------------------------| 
A|-6--/5---6--/5-5--5-/8--/5-/10---------------------------------------------| 
D|---------------------------------------------------------------------------| 

e|---------------------------------------------------------------------------| 
B|---------------------------------------------------------------------------| 
G|-8--/7---8--/7-7--7-/10-/7-/12---------------------------------------------| 
D|-x---x---x---x-x--x--x---x--x----------------------------------------------| 
A|-6--/5---6--/5-5--5-/8--/5-/10---------------------------------------------| 
D|---------------------------------------------------------------------------| 
           __ 
           PM 

Bridge 
This took out a while, but finally got it (maybe is not perfect) 
e|---------------------------------------------------------------------------| 
B|---------------------------------------------------------------------------| 
G|-77777-6666-6/5---5---3*---------------------------------------------------| 
D|-77777-6666-6/5---5--------------------------------------------------------| 
A|-55555-4444-4/3---3--------------------------------------------------------| 
D|---------------------------------------------------------------------------| 
                    __ 
                    PM 
e|----------------------------------------------------------------------| 
B|----------------------------------------------------------------------| 
G|-77777-6666-6/55------------------------------------------------------| 
D|-77777-6666-6/55------------------------------------------------------| 
A|-55555-4444-4/33------------------------------------------------------| 
D|----------------------------------------------------------------------| 

Then.... 
Guitar 1 
e|---------------------------------------------------------------------------| 
B|---------------------------------------------------------------------------| 
G|---------------------------------------------------------------------------| 
D|-0-0--7-5--0-0--7-5--0-0--7-5--0-0--7-5------------------------------------| 
A|---------------------------------------------------------------------------| 
D|---------------------------------------------------------------------------| 
Guitar 2 (comes later) 
e|---------------------------------------------------------------------------| 
B|---------------------------------------------------------------------------| 
G|------7-5-------7-5-------7-5-------7-5------------------------------------| 
D|-0-0-------0-0-------0-0-------0-0-----------------------------------------| 
A|---------------------------------------------------------------------------| 
D|---------------------------------------------------------------------------| 

Solo: 
i'm gonna put all the solo togeher, between each '|' play this ^ (both guitars) 
e|---------------|-----------------|-----------------------------------------------------------------------| 
B|---------------|-----------------|--10b-10b-10b---8b-8b-8b--10b-10b-10b--12b-12b-12b--14b-14b------------| 
G|--10b-10b-10b--|--12b--12b--12b--|-----------------------------------------------------------------------| 
D|---------------|-----------------|-----------------------------------------------------------------------| 
A|---------------|-----------------|-----------------------------------------------------------------------| 
D|---------------|-----------------|-----------------------------------------------------------------------| 
Play each note as many times you hear, again, just listen the song to understand what i mean 

-Play Intro/Post-Chorus a few times- 

Outro 
Guitar 1  
e|-------------------------------------------------------------------------| 
B|-------------------------------------------------------------------------| 
G|-------------------------------------------------------------------------| 
D|-1-0----1-0----3-0---5-0-------------------------------------------------| 
A|-1-0----1-0----3-0---5-0-------------------------------------------------| 
D|-1-0----1-0----3-0---5-0-------------------------------------------------| 
                 
                
Guitar 2 
e|------------------------------------------------------------------------| 
B|------------------------------------------------------------------------| 
G|-8-/7---8-/7----/10-/7-/12--/7------------------------------------------| 
D|-x--x---x--x-----x---x--x----x------------------------------------------| 
A|-6-/5---6-/5----/8--/5-/10--/5------------------------------------------| 
D|------------------------------------------------------------------------| 

Finish with this: 

e|------| 
B|------| 
G|------| 
D|------| 
A|--5b--| 
D|--0---| 

Bend the note just a little and thats all 

************************************ 

| /   slide up 
| \   slide down 
| h   hammer-on 
| p   pull-off 
| ~   vibrato 
| +   harmonic 
| x   Mute note 
| b   Bend 
| pb  Pre-bend 
| br  Bend release 
| pbr Pre-bend release 
| brb Bend release bend 

************************************ 
share this page

See Also: