E-Chords
Saosin

Bury Your Head(Tabs)

Saosin

Tuning: Drop D-flat (Db-Ab-Db-Gb-Bb-Eb) 
 
 
Intro: Both: 
---------------------------------------- 
---------------------------------------- 
-----------------7/10-10-10-10-10-10-10- 
-5-5-5-5-5-5-5-5-x-x--x--x--x--x--x--x-- 
-5-5-5-5-5-5-5-5-5/8--8--8--8--8--8--8-- 
-5-5-5-5-5-5-5-5------------------------ 
 
--------------------------------- 
--------------------------------- 
-------------------7-7-7-753/5- 
-1-1-1-1-1-1-1-1-1-x-x-x-x-x-x-x- 
-1-1-1-1-1-1-1-1-1-5-5-5-531/3- 
-1-1-1-1-1-1-1-1-1--------------- 
 
---------------------------------------- 
---------------------------------------- 
-----------------7/10-10-10-10-10-10-10- 
-5-5-5-5-5-5-5-5-x-x--x--x--x--x--x--x-- 
-5-5-5-5-5-5-5-5-5/8--8--8--8--8--8--8-- 
-5-5-5-5-5-5-5-5------------------------ 
 
---------------------------------- 
---------------------------------- 
--------------------------7-7-7-5- 
-3-3-3-3-3-3-3-3-0-0-0000-x-x-x-x- 
-3-3-3-3-3-3-3-3-0-0-0000-5-5-5-3- 
-3-3-3-3-3-3-3-3-0-0-0000--------- 
                     .... 
 
Pre-Verse: \'Bury your head, Bury your head\' (Gtr. 1 Only) 
------------------------------------------  
-10-11-10-11-10-11-10-11------------------ 
------------------------------------------2X 
------------------------------------------ 
------------------------------------------ 
------------------------------------------ 
 
Verse (2X): \'I was feeling fine\' (Gtr. 1 Only) 
------------------------------------------ 
-10-11-10-11-10-11-10-11------------------ 
------------------------------------------2X 
------------------------------------------ 
------------------------------------------ 
------------------------------------------ 
 
----13----13----13----13------------------ 
-10----10----10----10--------------------- 
------------------------------------------2X 
------------------------------------------ 
------------------------------------------ 
------------------------------------------ 
 
------------------------------------------ 
-10-11-10-11-10-11-10-11------------------ 
------------------------------------------2X 
------------------------------------------ 
------------------------------------------ 
------------------------------------------ 
 
----------------------------10----10----10----10- 
-10-13-10-13-10-13-10-13-10----10----10----10---- 
------------------------------------------------- 
------------------------------------------------- 
------------------------------------------------- 
------------------------------------------------- 
 
Prechorus: \'The things you said, I\'m rehearsing them.\' (Gtr. 1 Only) 
-------------------------------------10---------- 
-11-10----------11-10----------11-10----13-11---- 
-------10-12-10-------10-12-10----------------10- 
------------------------------------------------- 
------------------------------------------------- 
------------------------------------------------- 
 
-------------------------------------10---------- 
-11-10----------11-10----------11-10----13-11---- 
-------10-12-10-------10-12-10----------------12- 
------------------------------------------------- 
------------------------------------------------- 
------------------------------------------------- 
 
------------------------------------10---------- 
-11----10-------11-10----------11------13-11---- 
----12----10-12-------10-12-10----12---------10- 
------------------------------------------------ 
------------------------------------------------ 
------------------------------------------------ 
 
-------------------------------------10---------- 
-11----10-------11-10----------11-------13-11---- 
----12----10-12-------10-12-10----12----------12- 
------------------------------------------------- 
------------------------------------------------- 
------------------------------------------------- 
 
Chorus (2X): \'They went back on us\' (Both) 
---------------------------------------- 
---------------------------------------- 
-----------------7/10-10-10-10-10-10-10- 
-5-5-5-5-5-5-5-5-x-x--x--x--x--x--x--x-- 
-5-5-5-5-5-5-5-5-5/8--8--8--8--8--8--8-- 
-5-5-5-5-5-5-5-5------------------------ 
 
--------------------------------- 
--------------------------------- 
-------------------7-7-7-753/5- 
-1-1-1-1-1-1-1-1-1-x-x-x-x-x-x-x- 
-1-1-1-1-1-1-1-1-1-5-5-5-531/3- 
-1-1-1-1-1-1-1-1-1--------------- 
 
---------------------------------------- 
---------------------------------------- 
-----------------7/10-10-10-10-10-10-10- 
-5-5-5-5-5-5-5-5-x-x--x--x--x--x--x--x-- 
-5-5-5-5-5-5-5-5-5/8--8--8--8--8--8--8-- 
-5-5-5-5-5-5-5-5------------------------ 
 
---------------------------------- 
---------------------------------- 
--------------------------7-7-7-5- 
-3-3-3-3-3-3-3-3-0-0-0000-x-x-x-x- 
-3-3-3-3-3-3-3-3-0-0-0000-5-5-5-3- 
-3-3-3-3-3-3-3-3-0-0-0000--------- 
                 . . .... 
 
Pre-verse: (Gtr. 1 Only) 
---------------------------------- 
-10---11---10---11---10-11-------- 
---------------------------------- 
---------------------------------- 
---------------------------------- 
---------------------------------- 
 
Verse 
/* I\'ve discovered a second part here, I\'ll figure it out  
   soon and get back to you. */ 
 
Pre-Chorus 
Chorus 
 
Pre-Bridge: \'They have been the ones who\'ve seen enough\' 
Gtr 1- 
------------------------------------------------- 
-10-11-10-11-10-11-10-11-10-11-10-11-10-11-10-11- 
------------------------------------------------- 
------------------------------------------------- 
------------------------------------------------- 
------------------------------------------------- 
 
----13----13----13----13- 
-10----10----10----10---- 
------------------------- 
------------------------- 
------------------------- 
------------------------- 
Gtr 2- 
---- 
---- 
---- 
-5~- 
-5~- 
-5~- 
 
Bridge (3X): 
Gtr 1- 
---------------------------------- 
---------------------------------- 
---------------------------------- 
-5-3---5-3---5-3---5-3---5-3---5-- 
-----5-----5-----5-----5-----5---- 
---------------------------------- 
 
---------------------------------- 
---------------------------------- 
---------------------------------- 
-7-5---7-5---7-5---7-5---7-5---5-- 
-----5-----5-----5-----5-----5---- 
---------------------------------- 
 
---------------------------------- 
---------------------------------- 
---------------------------------- 
-8-7---8-7---8-7---8-7---8-7---8-- 
-----8-----8-----8-----8-----8---- 
---------------------------------- 
 
---------------------------------- 
---------------------------------- 
---------------------------------- 
-7-5---7-5---7-5---------8-----5-- 
-----5-----5-----5-5-6-5---6-5---- 
---------------------------------- 
                   . . .   . .  
Gtr 2- 
----------------------------------------------------------------- 
----------------------------------------------------------------- 
----------------------------------------------------------------- 
-5-5-5-5-5-5-5-5-5-5-5-5-5-5-5-5-0-0-0-0-0-0-0-0-0-0-0-0-0-0-0-0- 
-5-5-5-5-5-5-5-5-5-5-5-5-5-5-5-5-0-0-0-0-0-0-0-0-0-0-0-0-0-0-0-0- 
-5-5-5-5-5-5-5-5-5-5-5-5-5-5-5-5-0-0-0-0-0-0-0-0-0-0-0-0-0-0-0-0- 
 
----------------------------------------------------------------- 
----------------------------------------------------------------- 
----------------------------------------------------------------- 
-8-8-8-8-8-8-8-8-8-8-8-8-8-8-8-8-3-3-3-3-3-3-3-3-3-1-1-1-1-1-1-1- 
-8-8-8-8-8-8-8-8-8-8-8-8-8-8-8-8-3-3-3-3-3-3-3-3-3-1-1-1-1-1-1-1- 
-8-8-8-8-8-8-8-8-8-8-8-8-8-8-8-8-3-3-3-3-3-3-3-3-3-1-1-1-1-1-1-1- 
 
Chorus 
 
Outro: (Both) 
----------------------------------- 
----------------------------------- 
----------7-7-7-5----------7-3~---- 
-0-0-0000-x-x-x-x-0-0-0000-x-x--5~- 
-0-0-0000-5-5-5-3-0-0-0000-5-7~-5~- 
-0-0-0000---------0-0-0000------5~- 
 . . ....         . . .... 

roll up this ad to continue

share this page

See Also: