E-Chords
SandmarX

Liar(Tabs)

SandmarX

roll up this ad to continue

Key: B
INTRO 
 
     B           G         E 
Eb|------------------------------------------| 
Bb|------------------------------------------| 
Gb|-4--4-4-4---------------------------------| 
Db|-4--4-4-4----5--5-5-5---2-2-2-2--2-2-2-2--| 
Ab|-2--2-2-2----5--5-5-5---2-2-2-2--2-2-2-2--| 
Eb|-----------0-3--3-3-3-0-0-0-0-0--0-0-0-0--| 
 

 
Eb|--------------------------------------------7----5---4---| 
Bb|--------------------------------------------10b--8b--7b--| 
Gb|--------------------------9-9-9-9-9--9-9-9---------------| 
Db|--9--9-9-9----------------9-9-9-9-9--9-9-9---------------| 
Ab|-----------7--8-8-8--------------------------------------| 
Eb|---------------------10-7--------------------------------| 
 

Acorde Verso 
 
     B      E      C      D 
Eb|---7------7------8------10---| 
Bb|---7------9------8------10---| 
Gb|---8------9------9------11---| 
Db|-----------------------------| 
Ab|-----------------------------| 
Eb|-----------------------------| 
 

PreChorus:2X 

 
Eb|----------------------------------------------14-14--| 
Bb|-13-12-10-12---12-13-15---17-15-13--15-13-12---------| 
Gb|-----------------------------------------------------| 
Db|-----------------------------------------------------| 
Ab|-----------------------------------------------------| 
Eb|------------------------------------------------------| 
 

 
Eb|----14-15--14-15-17-17b------| 
Bb|-12--------------------------| 
Gb|-----------------------------| 
Db|-----------------------------| 
Ab|-----------------------------| 
Eb|-----------------------------| 
 



PostChorus 
 
Eb|-----------------------------------------| 
Bb|-----------------------------------------| 
Gb|------------------------------------16---| 
Db|-----------------------------------------| 
Ab|-14--16-17-16b17r16-14--16-14/16-14------| 
Eb|-----------------------------------------| 
 

Solo 
 
Eb|----------------------------------------------| 
Bb|----------------------------------------------| 
Gb|----------------------------------------------| 
Db|---------------------------------------10r9---| 
Ab|--------6-----6-6-7-7/9-9-10-10-10-9-7--------| 
Eb|-7--7-8---7-8---------------------------------| 
 

 
Eb|------------------------------------------------------| 
Bb|------------------------------------------------------| 
Gb|--------8------8--8--9--9--11-11--12-12-12--11-11-11--| 
Db|--9-10----9-10----------------------------------------| 
Ab|------------------------------------------------------| 
Eb|------------------------------------------------------| 
 

Solo Bridge 
 
Eb|----------------------------| 
Bb|-11--11-12--12-14--12--11---| 
Gb|-12--12-12--12-12--12--12---| 
Db|----------------------------| 
Ab|----------------------------| 
Eb|----------------------------| 
 

 
Eb|-----------------------------------| 
Bb|-----------------------------------| 
Gb|-10--10-10--10-10--9--9-10-10-10---| 
Db|-8---8--8---8--8---8--8-8--8--8----| 
Ab|-----------------------------------| 
Eb|-----------------------------------| 
 

 
Eb|-----------------------------------| 
Bb|-----------------------------------| 
Gb|-9---9--10--10-12--10---9----------| 
Db|-10--10-10--10-10--10---10---------| 
Ab|-----------------------------------| 
Eb|-----------------------------------| 
Eb|----------------15----13--------------------------------| 
Bb|----15----13-----------------15-----13------------------| 
Gb|--------------------------12----12-----12--15--12--14---| 
Db|-12----12----12----12-----------------------------------| 
Ab|--------------------------------------------------------| 
Eb|--------------------------------------------------------| 
 

SWEEP SOLO 

 
Eb|--------------14-17-14-----------------| 
Bb|-----------15----------15--------------| 
Gb|--------14----------------14-----------| 
Db|-----16----------------------16--------| 
Ab|--17----------------------------17-----| 
Eb|---------------------------------------| 
 

 
Eb|--------------------12-15-12---------------------| 
Bb|-----------------13----------13------------------| 
Gb|--------12---14-----------------14-12------------| 
Db|-----12-------------------------------14-12/10---| 
Ab|--13---------------------------------------------| 
Eb|-------------------------------------------------| 
 

 
Eb|------------------10-13-10-17-10-15-10--15-13-12-10-15---| 
Bb|---------------11----------------------------------------| 
Gb|--------10--12-------------------------------------------| 
Ab|-----12--------------------------------------------------| 
Db|--10-----------------------------------------------------| 
Eb|---------------------------------------------------------| 
 

 
Eb|---------------------------------------------------| 
Bb|----------------------------------13-12-12---------| 
Gb|-------------------------------------------14-12---| 
Db|-12-14-15-pb15br14-12-14-12-10-12------------------| 
Ab|---------------------------------------------------| 
Eb|---------------------------------------------------| 
 

 
Eb|------------------------------15-17-18-20-22b------------| 
Bb|-15-17-18-pb18br17---15-17-18----------------------------| 
Gb|---------------------------------------------------------| 
Ab|---------------------------------------------------------| 
Db|---------------------------------------------------------| 
Eb|---------------------------------------------------------| 
 

 
Eb|----------------------------------------------------------| 
Bb|----------------------------------------------------------| 
Gb|--------------------------------------12------------------| 
Db|--12-12--12-12------------------------12-12-12-12-12-12---| 
Ab|---------------10-11-11--11-11----------------------------| 
Eb|-------------------------------13-12----------------------| 
share this page

See Also: