E-Chords
Sad Lovers And Giants

Colourless Dream(Tabs)

Sad Lovers And Giants

Key: A
  

INTRO CHORDS: A  C#m  G  Bm (x7) (then hang on A until Verse starts)  

LEAD: (Starts after 3 laps of chords)   

e|----------------------------------------------------------------------| 
B|----------------------------------------------------------------------| 
G|----------------------------------------------------------------------| 
D|----------------------------------------------------------------------| 
A|--7-5-44-4h5p4---------------------7-5-44-4h5p4-----------------------| 
E|5--------------5-0--0-00-5--0----5--------------5-0--0-00-5-0-00-5----| 

e|-----------------------------------------------------------------------------| 
B|-----------------------------------------------------------------------------| 
G|-----------------------------------------------------------------------------| 
D|-----------------------------------------------------------------------------| 
A|00-4h5/77--00-4h5/77--00-4h5/77--00-4h5/77-00---7-5-44-4h5p4-----------------| 
E|----------------------------------------------5--------------5-0-00-5-0-00-5-| 

e|---------------------------------------------------------------------------| 
B|---------------------------------------------------------------------------| 
G|---------------------------------------------------------------------------|    
D|-----2-2-5-5-7-7-----2-2-5-5-7-7------2-2-5-5-7-7-----2-2-5-5-7-7----------|  (x4)  
A|0-0--------------0-0--------------0-0-------------0-0----------------------| 
E|---------------------------------------------------------------------------| 

Verse:  

    A      C#m  
I'm feeling  

      G             Bm  
in a shaky frame of mind 

A             C#m  
The look on my face,  

        G              Bm  
this is like a new beginning 

       A   C#m  
Believing  

      G                Bm  
if I get it wrong this time 

  A        C#m           G              Bm  
Floating in space I'll see the pieces spinning to the ground 

e|-------------------------------------------------------------0-------------| 
B|----5-----5-----------5-----5-----------5-----5------------3---3-----------| 
G|--6-----6------6----6-----6------6----6-----6------6-----4--------4--------| 
D|7-----7------7----6-----6------6----5-----5------5-----4------------4------| 
A|---------------------------------------------------------------------------| 
E|---------------------------------------------------------------------------| 


Solo: REPEAT INTRO PATTERN  


Verse: 

A       C#m               G  Bm 
When I dreamt a careless dream 

A         C#m               G   Bm      
There was nothing there to stop me 

A     C#m         G   Bm  
Now I see it on a screen 

A      C#m            G       Bm  
Such a careless (?) has shot me to the ground 


Solo: REPEAT INTRO PATTERN (with the expectation of the third part)  


Breakdown: A   Am  (x2) 

A            Am  
On a screen I can see it now 

A 
A thousand pieces 

       Am  
I can see them falling down 


Solo: REPEAT INTRO PATTERN (with the exception of the third part) (chord pattern becomes A-Am)  


************************************ 

| /   slide up 
| \   slide down 
| h   hammer-on 
| p   pull-off 
| ~   vibrato 
| +   harmonic 
| x   Mute note 
| b   Bend 
| pb  Pre-bend 
| br  Bend release 
| pbr Pre-bend release 
| brb Bend release bend 

************************************ 

roll up this ad to continue

share this page

See Also: