E-Chords
Ryan Gosling

Mia And Sebastian's Theme(Tabs)

Ryan Gosling

roll up this ad to continue

E|-----9-11-12-11-9-----9-11-12-11-9--------| 
B|--9--------------8--8-------------9-------| 
G|------------------------------------------| 
D|------------------------------------------| 
A|------------------------------------------| 
E|------------------------------------------| 

E|----9-11-12-12-11-9------14-12-11-12-11-9-| 
B|--9-----------------8----------------9----| 
G|------------------------------------------| 
D|------------------------------------------| 
A|------------------------------------------| 
E|------------------------------------------| 

E|------14-12-11-12-11------14-12-11-9------| 
B|--------------------9---------------8-9---| 
G|------------------------------------------| 
D|------------------------------------------| 
A|------------------------------------------| 
E|------------------------------------------| 
share this page

See Also: