E-Chords
Rumbora

VesteUniforme(Tabs)

Rumbora

Key: D5
                    Riff intro 
 
e|-------------------------------------------------\ 
b|-------------------------------------------------| 
g|-------------------------------------------------| 
d|---------------------3---------------------------|  2x 
a|-3/5-5-5-5---3-5-3/5---5---3/5-5-5-5---3---------| 
E|-----------------------------------------5-3-1-0-/ 
 
e|-------------------------------------------------\ 
b|---------------------6---------------------------| 
g|-5/7-7-7-7---5-7-5/7---7---5/7-7-7-7---5---------| 
d|-----------------------------------------7-5-3-0-|  2x 
a|-------------------------------------------------| 
E|-------------------------------------------------/ 
 
Riff 1 
 
  -Todo dia de manhã minha mãe vai no meu quarto e diz:'Vai!Vai!Vai!(Vai!Vai!Vai!)' 
   D5       		   G5  				D5           C5      G5   
e|---------------------------------------------------------------------------------\ 
b|---------------------------------------------------------------------------------| 
g|---------------------------------------------------------------------------------| 
d|7-7-7-7-7-7-7-7-7-7-7-7--5-5-5-5-5-5-5-5-5-5-5-5-5-5--7-7-7-7-7-7--5~~~----5~~~--| 
a|5-4-5-4-5-4-5-4-5-4-5-4--5-5-5-5-5-5-5-5-5-5-5-5-5-5--5-4-5-4-5-4--3~~~----5~~~--| 
E|5-4-5-4-5-4-5-4-5-4-5-4--3-2-3-2-3-2-3-2-3-2-3-2-3-2--5-4-5-4-5-4--3~~~----3~~~--/ 
 
  'Veste o uniform!, form! e vai  estudar!(e vai estudar) 
  B5 	             C5             D(normal) 
e|-------------------------------------------------------\ 
b|-------------------------------------------------------| 
g|-------------------------------------------------------| 
d|9-9-9-9-9-9-9-9-9--5-5-5-5-5-5-5--7-7-7-7-7-7-7-7-7-7-7| 
a|9-9-9-9-9-9-9-9-9--5-5-5-5-5-5-5--7-7-7-7-7-7-7-7-7-7-7| 
E|7-6-7-6-7-6-7-6-7--3-2-3-3-2-3-2--5-5-5-5-5-5-5-5-5-5-5/ 
 
  'Veste o uniform!  form!          form!' 
  B5 	             A5             G5  
e|------------------------------------------------\ 
b|------------------------------------------------| 
g|------------------------------------------------| 
d|9-9-9-9-9-9-9-9-9--7-7-7-7-7-7-7--5-5-5-5-5-5-5-| 
a|9-9-9-9-9-9-9-9-9--7-7-7-7-7-7-7--5-5-5-5-5-5-5-| 
E|7-6-7-6-7-6-7-6-7--3-2-3-3-2-3-2--3-4-3-4-3-4-3-/ 
 
Riff intro 
 
  -Todo dia de manhã meu   pai vai no meu quarto e diz:'Vai!Vai!Vai!(Vai!Vai!Vai!)' 
   D5       		   G5  				D5           C5      G5   
e|---------------------------------------------------------------------------------\ 
b|---------------------------------------------------------------------------------| 
g|---------------------------------------------------------------------------------| 
d|7-7-7-7-7-7-7-7-7-7-7-7--5-5-5-5-5-5-5-5-5-5-5-5-5-5--7-7-7-7-7-7--5~~~----5~~~--| 
a|5-4-5-4-5-4-5-4-5-4-5-4--5-5-5-5-5-5-5-5-5-5-5-5-5-5--5-4-5-4-5-4--3~~~----5~~~--| 
E|5-4-5-4-5-4-5-4-5-4-5-4--3-2-3-2-3-2-3-2-3-2-3-2-3-2--5-4-5-4-5-4--3~~~----3~~~--/ 
 
  'Veste o uniform!, form! e vai  estudar!(e vai estudar) 
  B5 	             C5             D(normal) 
e|-------------------------------------------------------\ 
b|-------------------------------------------------------| 
g|-------------------------------------------------------| 
d|9-9-9-9-9-9-9-9-9--5-5-5-5-5-5-5--7-7-7-7-7-7-7-7-7-7-7| 
a|9-9-9-9-9-9-9-9-9--5-5-5-5-5-5-5--7-7-7-7-7-7-7-7-7-7-7| 
E|7-6-7-6-7-6-7-6-7--3-2-3-3-2-3-2--5-5-5-5-5-5-5-5-5-5-5/ 
 
  'Veste o uniform! , form!,         form!' 
  B5 	             A5             G5  
e|------------------------------------------------\ 
b|------------------------------------------------| 
g|------------------------------------------------| 
d|9-9-9-9-9-9-9-9-9--7-7-7-7-7-7-7--5-5-5-5-5-5-5-| 
a|9-9-9-9-9-9-9-9-9--7-7-7-7-7-7-7--5-5-5-5-5-5-5-| 
E|7-6-7-6-7-6-7-6-7--3-2-3-3-2-3-2--3-4-3-4-3-4-3-/ 
 
Te vi matar aula, te vi matar aula, te vi matar(2x) 
  B5                            A5     G5         
e|------------------------------------------------\ 
b|------------------------------------------------| 
g|------------------------------------------------| 
d|9~~~~~~~~~~~~~~~~~~~~~~~~~~~~~7~~~~~~5~~~~~~~~~~| 
a|9~~~~~~~~~~~~~~~~~~~~~~~~~~~~~7~~~~~~5~~~~~~~~~~| 
E|7~~~~~~~~~~~~~~~~~~~~~~~~~~~~~5~~~~~~3~~~~~~~~~~/ 
 
Riff Intro 
 

roll up this ad to continue

share this page

See Also: