E-Chords
Rumbora

Veste O Uniforme(Tabs)

Rumbora

Key: D
Tom: D 
Intro: D5 

RIFF 1 (o contra baixo faz a mesma coisa, e a segunda guitarra entra uma oitava acima) 
e|--------------------|--------------------| 
B|--------------------|--------------------| 
G|--------------------|--------------------| 
D|-----------------3--|-----------------3--| 
A|-5-5-5-5-5-3-3h5---5|-5-5-5-5-5-4-3h5---5| 
E|--------------------|--------------------| 

RIFF 2 (Esse Riff é o corpo da música) 
   D5                G5            D5    G5    F5 
e|------------|-------------|------------|------| 
B|------------|-------------|------------|------| 
G|------------|-------------|------------|------| 
D|------------|-------------|------------|-5--3-| 
A|-5-3-5-3-5-3|-------------|-5-3-5-3-5-3|-5--3-| 
E|------------|-3-1-3-1-3-1-|------------|-3--1-| 
   D5                           G5               D5                          
e|------------|-------------|------------|--------| 
B|------------|-------------|------------|--------| 
G|------------|-------------|------------|--------| 
D|------------|-------------|------------|--------| 
A|-5-3-5-3-5-3|-------------|-5-3-5-3-5-3|-5-3-5-3| 
E|------------|-3-1-3-1-3-1-|------------|--------| 

RIFF 2 
D5            G5                                          D5                G5    F5 
Todo dia de manhã minha mãe vai no meu quarto e diz vai, vai, vai (vai, vai, vai)......  
D5             G5                                          D5  
Todo dia de manhã minha mãe vai no meu quarto e diz vai, vai, vai (vai, vai, vai)......  

RIFF 3 (Esse Riff é bem simples ) 
     B5             A5                 D5                G5 
e|---------|--------|----------------|  |-----------------| 
B|---------|--------|----------------|  |-----------------| 
G|---------|--------|----------------|  |-----------------| 
D|---------|--------|----------------|  |-----------------| 
A|---------|--------|5-3-5-3--5-3-5-3|  |-----------------| 
E|-7-5-7-5-|5-3-5-3-|----------------|  |-3-2-3-2--3-2-3-2| 
           B5                                       A5                          D5 
Veste o uniforme(tchub, tchub, tchub.......... ), forme,  e vai estudar, e vai estudar 
          B5                                       A5             G5                       
Veste o uniforme(tchub, tchub, tchub.......... ), forme, forme,   e vai estudar 

Intro: RIFF 1 

RIFF 2 
D5              G5                                          D5                G5    F5 
Todo dia de manhã meu pai vai no meu quarto e diz vai, vai, vai (vai, vai, vai)......  
D5              G5                                          D5  
Todo dia de manhã meu pai vai no meu quarto e diz vai, vai, vai (vai, vai, vai)......  

RIFF 3 
           B5                                       A5                          D5 
Veste o uniforme(tchub, tchub, tchub.......... ), forme,  e vai estudar, e vai estudar 
           B5                                       A5          G5     
Veste o uniforme(tchub, tchub, tchub.......... ), forme, forme  

RIFF 4 
     B5         A5          G5       A5* 
e|-----|------|--------| |--------| 
B|-----|------|--------| |--------| 
G|-----|------|--------| |--------| 
D|-----|------|--------| |--------| 
A|-\9--|-9/7--|-7/5^^^-| |-5/7^^^-| 
E|-----|------|--------| |--------| 
        B5                            A5          G5     
De me matar, a aula é de me matar, a aula é de me matar  
        B5                            A5          G5           A5* 
De me matar, a aula é de me matar, a aula é de me matar  

Intro: RIFF 1 

RIFF 5 
    D5       G5   F5 
e|-----------|------| 
B|-----------|------| 
G|-----------|------| 
D|-----------|-5--3-| 
A|-5-3-5-3-5-|-5--3-| 
E|-----------|-3--1-| 
D5           G5 F5 
Veste logo ai e vai    6X 

D5         G5 
Veste logo ai 

roll up this ad to continue

share this page

See Also: