E-Chords
Rumbora

E.P.O. (Exército Positivo Operante)(Tabs)

Rumbora

Key: C
 
Afinação - DADGBe 
 
Essa introdução pode parecer meio comprida mas  
ouvindo a música fica bem mais fácil...  
        C D 
e|----------------------------------| 
B|----------------------------------| 
G|--------Repetir 8x----------------| 
D|------5/7-7-7-7-7-7---------------| 
A|------3/5-5-5-5-5-5---------------| 
D|----------------------------------| 
 
Agora com uma bela distorção 
 
       D  Em    D Em G Gm Em D 
e|-----------------------------------------| 
B|-----------------------------------------| 
G|-----------------------------------------| 
D|-----O-O-1----O-1-5-4-1-O----------------| 
A|-----O-O-1----O-1-5-4-1-O----Repetir 3x--| 
D|-----O-O-1----O-1-5-4-1-O----------------| 
 
O solo é dividido em 4 partes sendo 2 delas iguais e intercaladas 
              1º                       2º 
e|-----------------|--------------------------------| 
B|-----------------|--------------------------------| 
G|--2222222-h-3333-|-2222222222-h-55555-h3333333333-| 
D|-----------------|--------------------------------| 
A|-----------------|--------------------------------| 
D|-----------------|--------------------------------| 
 
              3º                        4º 
e|------------------|-------------------------------| 
B|------------------|-------------------------------| 
G|--222222-h-333333-|--222222-h-55555-h-3333333333--| 
D|------------------|-------------------------------| 
A|------------------|-------------------------------| 
D|------------------|-------------------------------| 
 
 
 
Essa parte também é dividida em 4 partes e intercaladas 
 
       B     E   D       B    F   F#                                        
e|-------------------|-------------------| 
B|-------------------|-------------------| 
G|-------------------|-------------------| 
D|-----9-----9---7---|---9----11--12-----| 
A|-----9-----7---5---|---9----9---10-----| 
D|-----9-------------|---9---------------| 
       1º                    2º 
 
   B     E   D       B    F   F#                                        
e|-------------------|-------------------| 
B|-------------------|-------------------| 
G|-------------------|-------------------| 
D|-----9-----9---7---|---9----11--12-----| 
A|-----9-----7---5---|---9----9---10-----| 
D|-----9-------------|---9---------------| 
        3º                    4º 
ate aki eh o fim antes de começar a cantar, 
pois tem essa leve introdução novamente... 
 
Letra- 
 
É um novo milênio, o cerrado contra-ataca chegou a hora 
e chegado pra chegado o som de responssa RUMBORA 
mostrando a toda nação e gritando pro mundo,  
que o DF não é só feito de vagabundos 
boa vontade, força bruta, trabalho, honestidade 
a ipidemia c alastra por todos os lugares 
semeando a amizade, ideais verdadeiros,  
to aki fazendo um som, rimando com meus parceiros 
Rio de Janeiro, DF, Ceará e BH, tocando nos 4 cantos o bixo vai pegar 
nos povos do brasil incendiando a galera, não eh só um gesto mas aki ta a fera... 
 
Alf: 
Meu amigo Beto vem do Rio, Bill de BH, o Maca de Brasília e eu vim do Ceará 
vimos do cerrado pra ajudar a dizimar 
e agora na garoupa o virús vai espalhar 
é Alf, Beto, Maca e Bill RUMBORA e é pra todo BRASIL.....  
 
_______________________________________________________ 
Contribuição: Rafael Fraccaroli([email protected]) 

roll up this ad to continue

share this page

See Also: