E-Chords
Rory Gallagher

The Cuckoo(Tabs)

Rory Gallagher

Key: E

Gtr I (E A D G B E) - 'Rory Gallagher - Acoustic Guitar' 
Gtr II (E A D G B E) - 'Rory Gallagher - Acoustic Guitar' 


 Intro 
  Q=114 
  Am 
 4/4 
  Gtr I 
  E S  S  S S E E S S S S E   E S S S S E E S S S S E 
|------0------------0-------|-----0-----------0-------|| 
|---1-(1)---------1-1-------|---1-1---------1-1-------|| 
|---2-(2)---2-----2-2---2---|---2-2---2-----2-2---2---|| 
|---2-------------2---------|---2-----------2---------|| 
|-0-------------0-0---------|-0-0---------0-0---------|| 
|---------0---3-------0---3-|-------0---3-------0---3-|| 
| 
| Gtr II 
| W                           W 
|---------------------------|-------------------------|| 
|---------------------------|-------------------------|| 
|---------------------------|-------------------------|| 
|---------------------------|-------------------------|| 
|---------------------------|-------------------------|| 
|---------------------------|-------------------------|| 


 1st Verse 
  Am 
  E S S   S  S E   E S  S S S E 
|-----0-----------------0-------| 
|---1-1--------------1--1-------| 
|---2-2------2-------2--2---2---| 
|---2----------------2----------| 
|-0-0--------------0-0----------| 
|---------0----3----------0---3-| 
| 
| Q     a E.     S E Q. 
|-------1s3------3-3s5----------| 
|-------------------------------| 
|-------------------------------| 
|-------------------------------| 
|-------------------------------| 
|-------------------------------| 


   E  S S S S E E S S S S E 
|-------0-----------0-------| 
|-----1-1---------1-1-------| 
|-----2-2---2-----2-2---2---| 
|-----2-----------2---------| 
|--0--0---------0-0---------| 
|---------0---3-------0---3-| 
| 
| +Q      S S E H 
|-(5)-----5p3---------------| 
|-------------5-3-----------| 
|---------------------------| 
|---------------------------| 
|---------------------------| 
|---------------------------| 


  Em                        Am 
  E S S E S S E S S E S S   E S S S S E E S S S S E 
|-------------------------|-----0-----------0--------| 
|---0-0---0-0---0-0---0-0-|---1-1---------1-1--------| 
|---0-0---0-0---0-0---0-0-|---2-2---2-----2-2---2----| 
|---2-2---2-2---2-2---2-2-|---2-----------2----------| 
|---2-2---2-2---2-2---2-2-|-0-0---------0-0----------| 
|-0-----0-----0-----0-----|-------0---3-------0---3--| 
| 
|                           > 
| W                         W 
|-------------------------|--------------------------| 
|-------------------------|--------------------------| 
|-4-----------------------|-2------------------------| 
|-------------------------|--------------------------| 
|-------------------------|--------------------------| 
|-------------------------|--------------------------| 


  Am 
  E S S S S E   E S S S S E   E   S S S S E   E S S S S E 
|-----0-------------0-------|-------0-------------0-------| 
|---1-1-----------1-1-------|-----1-1-----------1-1-------| 
|---2-2---2-------2-2---2---|-----2-2---2-------2-2---2---| 
|---2-------------2---------|-----2-------------2---------| 
|-0-0-----------0-0---------|-0---0-----------0-0---------| 
|-------0---3---------0---3-|---------0---3---------0---3-| 
| 
| E E   S E   S H             E a E   S E   S H 
|---------------------------|-----------------------------| 
|---1-----3-----5-----------|---3s5-----3-----1-----------| 
|---------------------------|-----------------------------| 
|---2-----3-----5-----------|---3s5-----3-----2-----------| 
|---------------------------|-----------------------------| 
|---------------------------|-----------------------------| 


  Em 
  E S S E S S E S S E   S S 
|-----------------------------| 
|---0-0---0-0---0-0-----0-0---| 
|---0-0---0-0---0-0-----0-0---| 
|---2-2---2-2---2-2-----2-2---| 
|---2-2---2-2---2-2-----2-2---| 
|-0-----0-----0-----0---------| 
| 
| E S S H           S S E 
|-----------------------------| 
|-----------------------------| 
|-----0-------------2p0-------| 
|---2---2---------------2-----| 
|-----------------------------| 
|-0---------------------------| 


  E S  S S S E  E  S S S S E 
|------0-------------0-------|| 
|---1--1-----------1-1-------|| 
|---2--2---2-------2-2---2---|| 
|---2--------------2---------|| 
|-0-0-----------0--0---------|| 
|--------0---3---------0---3-|| 
| 
| E Q.         +H 
|----------------------------|| 
|----------------------------|| 
|---2----------(2)-----------|| 
|----------------------------|| 
|-0--------------------------|| 
|----------------------------|| 


 2nd Verse 
  Am 
  E   S  S S S E  E  S S S S E    E  S S S S E E S S S S E 
|--------0-------------0-------|-------0-----------0-------| 
|-----1--1-----------1-1-------|-----1-1---------1-1-------| 
|-----2--2---2-------2-2---2---|-----2-2---2-----2-2---2---| 
|-----2--------------2---------|-----2-----------2---------| 
|-0---0-----------0--0---------|--0--0---------0-0---------| 
|----------0---3---------0---3-|---------0---3-------0---3-| 
| 
| E a Q.         +H              +H.                 Q 
|------------------------------|---------------------------| 
|---3s5----------(5)-----------|-(5)-----------------------| 
|------------------------------|---------------------------| 
|------------------------------|---------------------------| 
|------------------------------|---------------------------| 
|------------------------------|---------------------------| 


  Em                        Am 
  E S S E S S E S S E S S   E S S S S E E S S S S E 
|-------------------------|-----0-----------0-------| 
|---0-0---0-0---0-0---0-0-|---1-1---------1-1-------| 
|---0-0---0-0---0-0---0-0-|---2-2---2-----2-2---2---| 
|---2-2---2-2---2-2---2-2-|---2-----------2---------| 
|---2-2---2-2---2-2---2-2-|-0-0---------0-0---------| 
|-0-----0-----0-----0-----|-------0---3-------0---3-| 
| 
| <                         > 
| W                         W 
|-------------------------|-------------------------| 
|-------------------------|-------------------------| 
|-4-----------------------|-2-----------------------| 
|-------------------------|-------------------------| 
|-------------------------|-------------------------| 
|-------------------------|-------------------------| 


  E S S S S E     E S S S S E 
|-----0---------------0--------| 
|---1-1-------------1-1--------| 
|---2-2---2---------2-2---2----| 
|---2---------------2----------| 
|-0-0-------------0-0----------| 
|-------0---3-----------0---3--| 
| 
| Q     S E   S a Q     Q 
|-------5-5---5-7s8-----5------| 
|------------------------------| 
|------------------------------| 
|------------------------------| 
|------------------------------| 
|------------------------------| 


   E     S S  S  S E    E S  S S S E 
|----------0-----------------0-------| 
|--------1-1--------------1--1-------| 
|--------2-2-----2--------2--2---2---| 
|--------2----------------2----------| 
|--0-----0--------------0-0----------| 
|-------------0----3-----------0---3-| 
| 
| +E  a  E    S  E    S E Q. 
|-(5)-8s10---10-10---10-8-5----------| 
|------------------------------------| 
|------------------------------------| 
|------------------------------------| 
|------------------------------------| 
|------------------------------------| 


  Em                             Am 
  E    S S  E  S S E S S E S S   E S S S S E E S S S S E 
|------------------------------|-----0-----------0-------|| 
|------0-0-----0-0---0-0---0-0-|---1-1---------1-1-------|| 
|------0-0-----0-0---0-0---0-0-|---2-2---2-----2-2---2---|| 
|------2-2-----2-2---2-2---2-2-|---2-----------2---------|| 
|------2-2-----2-2---2-2---2-2-|-0-0---------0-0---------|| 
|-0---------0------0-----0-----|-------0---3-------0---3-|| 
| 
| S E.     +H.                   W 
|------------------------------|-------------------------|| 
|-8-5------(5)-----------------|-------------------------|| 
|------------------------------|-------------------------|| 
|------------------------------|-7-----------------------|| 
|------------------------------|-------------------------|| 
|------------------------------|-------------------------|| 


 3rd Verse 
  Am 
  E S S S S E  E  S S S S E    E  S S S S E  E  S S S S E 
|-----0-------------0-------|-------0-------------0-------| 
|---1-1-----------1-1-------|-----1-1-----------1-1-------| 
|---2-2---2-------2-2---2---|-----2-2---2-------2-2---2---| 
|---2-------------2---------|-----2-------------2---------| 
|-0-0----------0--0---------|--0--0----------0--0---------| 
|-------0---3---------0---3-|---------0---3---------0---3-| 
| 
| E E   E   E +H              +E  E   E   E +H 
|-----------0-(0)-----------|-(0)-------------------------| 
|-------0-------------------|-------------0-(0)-----------| 
|---5-----------------------|---------5-------------------| 
|-7-------------------------|-----7-----------------------| 
|---------------------------|-----------------------------| 
|---------------------------|-----------------------------| 


  Em 
  E S  S E S S  E  S S E S S 
|-----------------------------| 
|---0--0---0-0-----0-0---0-0--| 
|---0--0---0-0-----0-0---0-0--| 
|---2--2---2-2-----2-2---2-2--| 
|---2--2---2-2-----2-2---2-2--| 
|-0------0------0------0------| 
| 
| E Q.         +H 
|-----------------------------| 
|---3----------(3)------------| 
|---0----------(0)------------| 
|---2----------(2)------------| 
|-----------------------------| 
|-0---------------------------| 


  Am 
  E S S S S E E S S S S E   E S S S S E E S S S S E 
|-----0-----------0-------|-----0-----------0-------| 
|---1-1---------1-1-------|---1-1---------1-1-------| 
|---2-2---2-----2-2---2---|---2-2---2-----2-2---2---| 
|---2-----------2---------|---2-----------2---------| 
|-0-0---------0-0---------|-0-0---------0-0---------| 
|-------0---3-------0---3-|-------0---3-------0---3-| 
| 
| W                         E E   E   E H 
|-------------------------|-------------------------| 
|-------------------------|-------------0-----------| 
|-------------------------|-------5-----------------| 
|-7-----------------------|---7-------7-------------| 
|-0-----------------------|-0-----------------------| 
|-------------------------|-------------------------| 


   E  S S S S E E S S S S E 
|-------0-----------0--------| 
|-----1-1---------1-1--------| 
|-----2-2---2-----2-2---2----| 
|-----2-----------2----------| 
|--0--0---------0-0----------| 
|---------0---3-------0---3--| 
| 
| +E  E   E   E H 
|----------------------------| 
|-(0)-----------0------------| 
|---------5------------------| 
|-----7-------7--------------| 
|----------------------------| 
|----------------------------| 


  Em 
  E S S E S S  E  S S E S S 
|---------------------------| 
|---0-0---0-0-----0-0---0-0-| 
|---0-0---0-0-----0-0---0-0-| 
|---2-2---2-2-----2-2---2-2-| 
|---2-2---2-2-----2-2---2-2-| 
|-0-----0------0------0-----| 
| 
| E E   E E   +H 
|---------------------------| 
|---------3---(3)-----------| 
|---0-----------------------| 
|-------2-------------------| 
|---------------------------| 
|-0-------------------------| 


                            4th Verse 
  Am                         Am 
  E S S S S E E S S S S E    E S S S S E E S S S S E 
|-----0-----------0-------||-----0-----------0--------| 
|---1-1---------1-1-------||---1-1---------1-1--------| 
|---2-2---2-----2-2---2---||---2-2---2-----2-2---2----| 
|---2-----------2---------||---2-----------2----------| 
|-0-0---------0-0---------||-0-0---------0-0----------| 
|-------0---3-------0---3-||-------0---3-------0---3--| 
| 
| W                          E S S S S E H 
|-------------------------||--------------------------| 
|-------------------------||---8p5--------------------| 
|-------------------------||-------5-7----------------| 
|-7-----------------------||-----------5-7------------| 
|-0-----------------------||--------------------------| 
|-------------------------||--------------------------| 


                            Em 
  E S S S S E E S S S S E   E S  S E S S  E  S S E S S 
|-----0-----------0-------|----------------------------| 
|---1-1---------1-1-------|---0--0---0-0-----0-0---0-0-| 
|---2-2---2-----2-2---2---|---0--0---0-0-----0-0---0-0-| 
|---2-----------2---------|---2--2---2-2-----2-2---2-2-| 
|-0-0---------0-0---------|---2--2---2-2-----2-2---2-2-| 
|-------0---3-------0---3-|-0------0------0------0-----| 
| 
| E S S S S E H             E Q.         +H 
|-------------------------|----------------------------| 
|---8p5-------------------|----------------------------| 
|-------5-7---------------|---0----------(0)-----------| 
|-----------5-7-----------|---2----------(2)-----------| 
|-------------------------|---2----------(2)-----------| 
|-------------------------|-0--------------------------| 


  Am 
  E S S  S  S E E S S S S E 
|-----0-------------0--------| 
|---1-1-----------1-1--------| 
|---2-2-----2-----2-2---2----| 
|---2-------------2----------| 
|-0-0-----------0-0----------| 
|--------0----3-------0---3--| 
| 
| E E   +S  S E E Q       E 
|----------------------------| 
|----------------------------| 
|---2---(2)-2-0-2-2----------| 
|----------------------------| 
|-0-----------------------0--| 
|----------------------------| 


  E S S S S E E S S S S E    E  S S S S E E S S S S E 
|-----0-----------0-------|-------0-----------0-------| 
|---1-1---------1-1-------|-----1-1---------1-1-------| 
|---2-2---2-----2-2---2---|-----2-2---2-----2-2---2---| 
|---2-----------2---------|-----2-----------2---------| 
|-0-0---------0-0---------|--0--0---------0-0---------| 
|-------0---3-------0---3-|---------0---3-------0---3-| 
| 
| W                         +W 
|-------------------------|---------------------------| 
|-5-----------------------|-(5)-----------------------| 
|-------------------------|---------------------------| 
|-7-----------------------|-(7)-----------------------| 
|-------------------------|---------------------------| 
|-------------------------|---------------------------| 


  Em 
  E S  S E S S  E  S S E S S 
|-----------------------------| 
|---0--0---0-0-----0-0---0-0--| 
|---0--0---0-0-----0-0---0-0--| 
|---2--2---2-2-----2-2---2-2--| 
|---2--2---2-2-----2-2---2-2--| 
|-0------0------0------0------| 
| 
| E Q.         +H 
|-----------------------------| 
|---3----------(3)------------| 
|---0----------(0)------------| 
|---2----------(2)------------| 
|---2----------(2)------------| 
|-0---------------------------| 


                            5th Verse 
                             Am 
  E S S S S E E S S S S E    E S S S S E  E  S S S S E 
|-----0-----------0-------||-----0-------------0-------| 
|---1-1---------1-1-------||---1-1-----------1-1-------| 
|---2-2---2-----2-2---2---||---2-2---2-------2-2---2---| 
|---2-----------2---------||---2-------------2---------| 
|-0-0---------0-0---------||-0-0----------0--0---------| 
|-------0---3-------0---3-||-------0---3---------0---3-| 
| 
| W                          E E   E   E +H 
|-------------------------||-----------0-(0)-----------| 
|-------------------------||-------0-------------------| 
|-------------------------||---5-----------------------| 
|-7-----------------------||-7-------------------------| 
|-0-----------------------||---------------------------| 
|-------------------------||---------------------------| 


   E  S S  S  S  E E S S S S E 
|-------0--------------0--------| 
|-----1-1------------1-1--------| 
|-----2-2-----2------2-2---2----| 
|-----2--------------2----------| 
|--0--0------------0-0----------| 
|----------0-----3-------0---3--| 
| 
| +E  S S +S  E.   H 
|-(0)---------------------------| 
|-------0-(0)-------------------| 
|-----5-------------------------| 
|-------------5----7------------| 
|-------------------------------| 
|-------------------------------| 


  Em 
  E S S E   S S  E  S S E S S 
|-----------------------------| 
|---0-0-----0-0-----0-0---0-0-| 
|---0-0-----0-0-----0-0---0-0-| 
|---2-2-----2-2-----2-2---2-2-| 
|---2-2-----2-2-----2-2---2-2-| 
|-0-----0--------0------0-----| 
| 
| E S S S S E   +Q      E E 
|-----------------------------| 
|-----------------------------| 
|-----0---0-------------------| 
|---2---2---2---(2)-------2---| 
|---2-------------------------| 
|-0---------------------0-----| 


  Am 
  E S  S S S E  E  S S S S E     E S S  S  S E E S S S S E 
|------0-------------0-------|-------0-------------0--------| 
|---1--1-----------1-1-------|-----1-1-----------1-1--------| 
|---2--2---2-------2-2---2---|-----2-2-----2-----2-2---2----| 
|---2--------------2---------|-----2-------------2----------| 
|-0-0-----------0--0---------|---0-0-----------0-0----------| 
|--------0---3---------0---3-|----------0----3-------0---3--| 
| 
| E Q.         +H              a E S S +S  S E H 
|---0----------(0)-----------|------------------------------| 
|---1----------(1)-----------|-------0-(0)-0---0------------| 
|---2----------(2)-----------|-----5------------------------| 
|---2----------(2)-----------|-5s7-----------7--------------| 
|-0--------------------------|------------------------------| 
|----------------------------|------------------------------| 


   E  S S S S   E   E S S S S E 
|-------0---------------0-------| 
|-----1-1-------------1-1-------| 
|-----2-2---2---------2-2---2---| 
|-----2---------------2---------| 
|--0--0-------------0-0---------| 
|---------0-----3---------0---3-| 
| 
|         |---3---| 
| +E  E   E   E   E H 
|-----------------0-------------| 
|-(0)---------0-----0-----------| 
|---------5---------------------| 
|-----7-------------------------| 
|-------------------------------| 
|-------------------------------| 


  Em                           Am 
  E S  S E S S  E  S S E S S   E S  S S S E  E  S S S S E 
|----------------------------|------0-------------0--------|| 
|---0--0---0-0-----0-0---0-0-|---1--1-----------1-1--------|| 
|---0--0---0-0-----0-0---0-0-|---2--2---2-------2-2---2----|| 
|---2--2---2-2-----2-2---2-2-|---2--------------2----------|| 
|---2--2---2-2-----2-2---2-2-|-0-0-----------0--0----------|| 
|-0------0------0------0-----|--------0---3---------0---3--|| 
| 
| E Q.         +H              E Q.         +H 
|----------------------------|-----------------------------|| 
|---3----------(3)-----------|-----------------------------|| 
|---0----------(0)-----------|---2----------(2)------------|| 
|---2----------(2)-----------|-----------------------------|| 
|---2----------(2)-----------|-0---------------------------|| 
|-0--------------------------|-----------------------------|| 


 Guitar Solo 
  C       G         Am 
    E S S  E    S S E E   +S  S E 
|---------------------------------| 
|-----1-1-------0-0---1---(1)-1-1-| 
|-----0-0-------0-0---2---(2)-2-2-| 
|-----2-2-------0-0---2---(2)-2-2-| 
|---3---------------0-0---(0)-0-0-| 
|----------3----------------------| 
| 
| a E S S +S  S E   E S S +S  S E 
|---------------------------------| 
|---------------------------------| 
|-1s2-2-2-(2)-2-2---2-2-2-(2)-2-2-| 
|---------------------------------| 
|---------------------------------| 
|---------------------------------| 


  C     G     Am              C     G       C       G 
  E S S E S S E E   +S  S E   E S S E   S S E   S S E S S 
|---------------------------|-------------------------------| 
|---1-1---0-0---1---(1)-1-1-|---1-1-----0-0-----1-1---0-0---| 
|---0-0---0-0---2---(2)-2-2-|---0-0-----0-0-----0-0---0-0---| 
|---2-2---0-0---2---(2)-2-2-|---2-2-----0-0-----2-2---0-0---| 
|-3-----------0-0---(0)-0-0-|-3-------------3---------------| 
|-------3-------------------|-------3---------------3-------| 
| 
| E E   E E   E S S +S  S E   E S S S S E   S E   S E E 
|-------0-1---0-------------|---------3-3---0---------------| 
|-1-3-----------3-1-(1)-1---|-0-1-3-0---------3---1-0-------| 
|-------------------------2-|-------------------------0-----| 
|---------------------------|-------------------------------| 
|---------------------------|-------------------------------| 
|---------------------------|-------------------------------| 


  C     G       Am          Dadd11/A      A5          Dadd11/A 
 2/4           4/4 
  E S S E S S    E  E E S S S S E S S E   S S E S S E S S E S S E 
|-------------|-------------------------|-------------------------| 
|---1-1---0-0-|-----1---1-1-3-3-3---3-3-|---5-5---5-5---3-3---3-3-| 
|---0-0---0-0-|-----2---2-2-0-0-0---0-0-|---0-0---0-0---0-0---0-0-| 
|---2-2---0-0-|-----2---2-2-4-4-4---4-4-|---5-5---5-5---4-4---4-4-| 
|-3-----------|--0--0---0-0-0-0-0---0-0-|-0-0-0-0-0-0-0-0-0---0-0-| 
|-------3-----|-------0-----------0-----|-------------------0-----| 
| 
| H             +H          H             W 
|-------------|-------------------------|-------------------------| 
|-------------|-------------------------|-------------------------| 
|-2-----------|-(2)---------------------|-------------------------| 
|-------------|-------------------------|-------------------------| 
|-------------|-------------------------|-------------------------| 
|-------------|-------------------------|-------------------------| 


  Am7     Dadd11/AA5      Dadd11/A  Am7 G     Am 
  |-3-|   |-3-|   |-3-|   |-3-| 
  S S S E S S S E S S S E S S S E   E E S S E E E S S E 
|---------------------------------|----------------------| 
|-----1-------3-------5-------3---|---1-----0h1-1-1-1-0--| 
|---0---0-----0-0---0-0-0-----0-0-|---0---0-0h2-2-2-2-0--| 
|-2---------4---------------4-----|---2-----0h2-2-2-2-0--| 
|-0-------0-------0-------0-------|-0-0---------0--------| 
|---------------------------------|-----3----------------| 


  Am                              G/A               Am 
  E S S S S S S S S S S S S S S   S S S S S S  S  S E S S S S S S 
|-----5-------------------------|-------3-------------5-5---5-5-5--| 
|-----------8p5-----8p5---------|---3-------3-(3)s5---5-5---5-5-5--| 
|---5-----5-5-----5-5-----5-----|-----4--------4s=5---5-5---5-5-5--| 
|-7-----7---7---7---7---7---7s5-|-5-------5---------7-----7--------| 
|-0-----0-------0-------0-------|-0-------0---------0-----0--------| 
|-------------------------------|----------------------------------| 


                                  G/A             Am 
  S S S S S S S S S S S S S S E   S S S S S S S S E E S S S S 
|---5-5-5---5-5-5---5---5-------|-------3-----------5-------5-| 
|---5-5-5---5-5-5---5-8-5---5---|---3-------3-------5---5-----| 
|---5-5-5---5-5-5---5-5-5---5---|-----4-------------5-----5---| 
|-7-------7-------7-------7-----|-5-------5---5s7-7-7-7-------| 
|-0-------0-------0-------0---0-|-0-------0-------0---0-------| 
|-------------------------------|-----------------------------| 


                                    G/A           Am 
  S S S S S S S S S S S S S S S S   S S S S S S e E E +S  S S S 
|-------5-------5-------5---------|-------3---------0-(0)-0-0-0-| 
|---5-8-----5-8-----5-8-----5-----|---3-------3-----1-(1)-1-1-1-| 
|-----5-------5-------5-----------|-----4-------4---2-(2)-2-2-2-| 
|-7-------7-------7-------7---7s5-|-5-------5---5---2-(2)-2-2-2-| 
|-0-------0-------0-------0-------|-0-------0-----0-0-(0)-0-0-0-| 
|---------------------------------|-----------------------------| 


                                      |-3-| 
  S S S S S S S S E E E S S   S S S S S S S S S S S S S S S S S 
|-----------------------0-0-|------------------------------------| 
|-----------------------1-1-|------------------------------------| 
|-----------------------2-2-|------------------------------------| 
|-------0-2-0-----------2-2-|-------0-2p0---0-2-3-0-2p0----------| 
|-0-2-3-------3-2-0---0-----|-0-2-3-------3-------------3-2-0-0--| 
|-------------------3-------|------------------------------------| 


                        C     G     Am            C     G     Am 
  E E S S E E E S S E   S S E S S E E E +S  S E   S S E S S E E E +S  S E 
|---------------------|---------------0-(0)-----|---------------0-(0)------| 
|---1---1-----1-------|---1-----------1-(1)-1-0-|---0-1---------1-(1)-1-1--| 
|---2---2-----2---2---|-----0---0-0---2-(2)-2-0-|-----0---0-0---2-(2)-2-2--| 
|---2---2---2-2-----2-|-----2-----0---2-(2)-2-0-|-----2-----0---2-(2)-2-2--| 
|-0---------0-0-------|-3-----------0-0-(0)---0-|-0---3-------0-0-(0)---0--| 
|-----0---3-0---0-----|-------3-----------------|-------3------------------| 


  C     G     C     G       C     G       Am         G 
                           2/4           4/4 
  S S E S S E S S E S S E   S S E S S E   E Q  E E E S S E 
|-------------------------|-------------|---0---------------| 
|---1-----------1---------|---1---------|---1------1--------| 
|-----0---0-0-----0---0-0-|-----0---0-0-|---2------2---0----| 
|-----2-----0-----2-----0-|-----2-----0-|---2------2---0----| 
|-3-----------3-----------|-3-----------|-0-0----0-0-2------| 
|-------3-----------3-----|-------3-----|------3---------3--| 
| 
| Gtr II 
| W                         W             H      Q   E   E 
|-------------------------|-------------|-------------------| 
|-------------------------|-------------|-------------------| 
|-------------------------|-------------|-------------------| 
|-------------------------|-------------|-------------------| 
|-------------------------|-------------|------------2------| 
|-------------------------|-------------|----------------3--| 


                        6th Verse 
  Am                     Am 
  E E S S E E E S S E    E S S  S  S E  E  S S S S E 
|---------------------||-----0---------------0-------| 
|---------------------||---1-1-------------1-1-------| 
|-2-2---2---2-2---2---||---2-2-----2-------2-2---2---| 
|-2-2-------2-2-------||---2---------------2---------| 
|-0-0-------0-0-------||-0-0------------0--0---------| 
|-----0---3-----0---3-||--------0----3---------0---3-| 
| 
| W                      E S S +S  S E +H 
|---------------------||-----------------------------| 
|---------------------||-----0-(0)-------------------| 
|---------------------||---5---------5-(5)-----------| 
|---------------------||-----------7-----------------| 
|-0-------------------||-----------------------------| 
|---------------------||-----------------------------| 


   E  S S  S  S E E S S S S E 
|-------0-------------0--------| 
|-----1-1-----------1-1--------| 
|-----2-2-----2-----2-2---2----| 
|-----2-------------2----------| 
|--0--0-----------0-0----------| 
|----------0----3-------0---3--| 
| 
| +E  S S +S  S E E S S S S E 
|------------------------------| 
|-----------------------0------| 
|-(5)---5-(5)---5-----5---5----| 
|-----7-------7---7-7-------7--| 
|------------------------------| 
|------------------------------| 


  Em 
  E S S  E     S S E S  S E S S 
|-------------------------------| 
|---0-0--------0-0---0--0---0-0-| 
|---0-0--------0-0---0--0---0-0-| 
|---2-2--------2-2---2--2---2-2-| 
|---2-2--------2-2---2--2---2-2-| 
|-0------0---------0------0-----| 
| 
| E S S +S  E.     E Q. 
|-----------0-------------------| 
|------------------0-0----------| 
|-----0-(0)---------------------| 
|---2---------------------------| 
|-------------------------------| 
|-0-----------------------------| 


  Am 
  E S S  S  S E E S S S S E   E S S  S  S E E S  S S S E 
|-----0-------------0-------|-----0--------------0-------| 
|---1-1-----------1-1-------|---1-1-----------1--1-------| 
|---2-2-----2-----2-2---2---|---2-2-----2-----2--2---2---| 
|---2-------------2---------|---2-------------2----------| 
|-0-0-----------0-0---------|-0-0-----------0-0----------| 
|--------0----3-------0---3-|--------0----3--------0---3-| 
| 
| E S S +S  S E H             E S S +S  S E E Q. 
|---------------------------|----------------------------| 
|-----1-(1)---1-------------|-----1-(1)---1--------------| 
|---2-------2---2-----------|---2-------2---2-2----------| 
|---------------------------|----------------------------| 
|-0-------------------------|-0--------------------------| 
|---------------------------|----------------------------| 


                               Em 
  E S S  S  S E E S  S S S E   E S S  E    S S E  S S  E     S S 
|-----0--------------0-------|-----------------------------------| 
|---1-1-----------1--1-------|---0-0-------0-0----0-0--------0-0-| 
|---2-2-----2-----2--2---2---|---0-0-------0-0----0-0--------0-0-| 
|---2-------------2----------|---2-2-------2-2----2-2--------2-2-| 
|-0-0-----------0-0----------|---2-2-------2-2----2-2--------2-2-| 
|--------0----3--------0---3-|-0------0--------0-------0---------| 
| 
| E S S +S  S E E Q.           E S S +S  S E   E.   S +S  E. 
|---------------0------------|-----------------------------------| 
|-----1-(1)-0----------------|-----------------3-----------------| 
|---2---------2---2----------|-----0-(0)-0----------------0------| 
|----------------------------|---2---------2--------2-(2)--------| 
|-0--------------------------|-----------------------------------| 
|----------------------------|-0---------------------------------| 


  Am 
  E S S  S  S E E S S S S E 
|-----0-------------0--------|| 
|---1-1-----------1-1--------|| 
|---2-2-----2-----2-2---2----|| 
|---2-------------2----------|| 
|-0-0-----------0-0----------|| 
|--------0----3-------0---3--|| 
| 
| E S S +S  S E E S S S S E 
|---------------0------------|| 
|-----------0-------1---1----|| 
|-----2-(2)-------------2----|| 
|---2---------2---2---2---2--|| 
|-0--------------------------|| 
|----------------------------|| 


 7th Verse 
  Am 
  E S S S S E E S S S S E    E  S S S S E E S S S S E 
|-----0-----------0-------|-------0-----------0-------| 
|---1-1---------1-1-------|-----1-1---------1-1-------| 
|---2-2---2-----2-2---2---|-----2-2---2-----2-2---2---| 
|---2-----------2---------|-----2-----------2---------| 
|-0-0---------0-0---------|--0--0---------0-0---------| 
|-------0---3-------0---3-|---------0---3-------0---3-| 
| 
| H           H             +W 
|-------------------------|---------------------------| 
|-------------1-----------|-(1)-----------------------| 
|-------------0-----------|-(0)-----------------------| 
|-------------2-----------|-(2)-----------------------| 
|-0-----------0-----------|-(0)-----------------------| 
|-------------------------|---------------------------| 


  Em 
  E S  S E S S  E  S S E S S 
|-----------------------------| 
|---0--0---0-0-----0-0---0-0--| 
|---0--0---0-0-----0-0---0-0--| 
|---2--2---2-2-----2-2---2-2--| 
|---2--2---2-2-----2-2---2-2--| 
|-0------0------0------0------| 
| 
| E Q.         +H 
|-----------------------------| 
|---3----------(3)------------| 
|---0----------(0)------------| 
|---2----------(2)------------| 
|---2----------(2)------------| 
|-0---------------------------| 


  Am 
  E S S  S  S  E E S S  S  S E 
|-----0--------------0---------| 
|---1-1------------1-1---------| 
|---2-2-----2------2-2-----2---| 
|---2--------------2-----------| 
|-0-0------------0-0-----------| 
|--------0-----3--------0----3-| 
| 
| E S S +S  E.   E S S +Q 
|-----0-(0)--------------------| 
|-----------1--------1-(1)-----| 
|---2--------------2-----------| 
|------------------------------| 
|-0--------------0-------------| 
|------------------------------| 


  E S S  S  S E E  S S  S  S E    E  S S S S E E  S S  S  S E 
|-----0--------------0---------|-------0------------0----------| 
|---1-1------------1-1---------|-----1-1----------1-1----------| 
|---2-2-----2------2-2-----2---|-----2-2---2------2-2-----2----| 
|---2--------------2-----------|-----2------------2------------| 
|-0-0-----------0--0-----------|--0--0---------0--0------------| 
|--------0----3---------0----3-|---------0---3---------0----3--| 
| 
| E S S +S  S E E.   S +Q        +E  e   e   e E.   S +Q 
|------------------------------|-------------------------------| 
|---------------7----5-(5)-----|-(5)-5---5---5-7----5-(5)------| 
|-----------5---7----5-(5)-----|-(5)-5---5---5-7----5-(5)------| 
|---5h7-(7)---5-7----5-(5)-----|-(5)-5---5---5-7----5-(5)------| 
|------------------------------|-------------------------------| 
|------------------------------|-------------------------------| 


  Em 
  E S S  E    S S E S S E   S S 
|-------------------------------| 
|---0-0-------0-0---0-0-----0-0-| 
|---0-0-------0-0---0-0-----0-0-| 
|---2-2-------2-2---2-2-----2-2-| 
|---2-2-------2-2---2-2-----2-2-| 
|-0------0--------0-----0-------| 
| 
| E S S +S  S E   E E   S S E 
|-------------------------------| 
|-----3-(3)-------3-------3-----| 
|-----0-(0)-0-----0-------0-----| 
|---2---------2-----2---2-------| 
|-------------------------------| 
|-0-------------------------3---| 


                            8th Verse 
  Am                         Am 
  E S S S S E E S S S S E    E S S S S E   E S S S S E 
|-----0-----------0-------||-----0-------------0-------| 
|---1-1---------1-1-------||---1-1-----------1-1-------| 
|---2-2---2-----2-2---2---||---2-2---2-------2-2---2---| 
|---2-----------2---------||---2-------------2---------| 
|-0-0---------0-0---------||-0-0-----------0-0---------| 
|-------0---3-------0---3-||-------0---3---------0---3-| 
| 
| W                          E E   E   E a H 
|-------------------------||---5---5---7-7s8-----------| 
|-------------------------||---------------------------| 
|-------------------------||---------------------------| 
|-------------------------||---------------------------| 
|-0-----------------------||---------------------------| 
|-------------------------||---------------------------| 


   E  S S S S E   E S  S S S E 
|-------0--------------0-------| 
|-----1-1-----------1--1-------| 
|-----2-2---2-------2--2---2---| 
|-----2-------------2----------| 
|--0--0-----------0-0----------| 
|---------0---3----------0---3-| 
| 
| +E  S S S E   S E Q. 
|-(8)-8p7-5-7---5--------------| 
|-----------------8-5----------| 
|------------------------------| 
|------------------------------| 
|------------------------------| 
|------------------------------| 


  Em                            Am 
  E S S E   S S  E  S S E S S   E S S  S  S E E S S S S E 
|-----------------------------|-----0-------------0--------| 
|---0-0-----0-0-----0-0---0-0-|---1-1-----------1-1--------| 
|---0-0-----0-0-----0-0---0-0-|---2-2-----2-----2-2---2----| 
|---2-2-----2-2-----2-2---2-2-|---2-------------2----------| 
|---2-2-----2-2-----2-2---2-2-|-0-0-----------0-0----------| 
|-0-----0--------0------0-----|--------0----3-------0---3--| 
| 
| E E   S S E   +H              E S S +S  S E H 
|---------0-------------------|---------------0------------| 
|-----------3---(3)-----------|-----------1----------------| 
|-------0---------------------|-----2-(2)---2--------------| 
|---2-------------------------|---2------------------------| 
|-----------------------------|-0--------------------------| 
|-0---------------------------|----------------------------| 


  E S S  S  S  E E  S S  S  S E 
|-----0---------------0---------| 
|---1-1-------------1-1---------| 
|---2-2-----2-------2-2-----2---| 
|---2---------------2-----------| 
|-0-0------------0--0-----------| 
|--------0-----3---------0----3-| 
| 
| E S S +S  E.   E.   S +E    E 
|-----------0----3----0-(0)-----| 
|-----3-(3)-------------------3-| 
|---2---------------------------| 
|-------------------------------| 
|-------------------------------| 
|-0-----------------------------| 


                                 Em 
  E  S S  S  S E E   S S S S E   E S S E   S S E  S S  E    S S 
|------0---------------0-------|--------------------------------| 
|----1-1-------------1-1-------|---0-0-----0-0----0-0-------0-0-| 
|----2-2-----2-------2-2---2---|---0-0-----0-0----0-0-------0-0-| 
|----2---------------2---------|---2-2-----2-2----2-2-------2-2-| 
|-0--0-----------0---0---------|---2-2-----2-2----2-2-------2-2-| 
|---------0----3---------0---3-|-0-----0-------0-------0--------| 
| 
| E.   S +S  S E S S E   E   E   E E   S S E   E.   S +S  S E 
|-0----------------------------|--------------------------------| 
|------1-(1)-0h1-0h1-----------|---------------3----0-(0)-3-3---| 
|------------------------2-----|---0-----0-----0----0-(0)-0-0---| 
|--------------------2-------2-|---2---2---2---2----2-(2)-2-2---| 
|------------------------------|---2----------------------------| 
|------------------------------|-0------------------------------| 


                              Outro 
                               Am 
  E S S  S  S E E S S S S E    E S S S S E   E     S S S S E 
|-----0-------------0-------||-----0-----------------0-------| 
|---1-1-----------1-1-------||---1-1---------------1-1-------| 
|---2-2-----2-----2-2---2---||---2-2---2-----------2-2---2---| 
|---2-------------2---------||---2-----------------2---------| 
|-0-0-----------0-0---------||-0-0-----------0-----0---------| 
|--------0----3-------0---3-||-------0---3-------------0---3-| 
| 
|                                            |-3-| 
| E E   +S  S E E E   E   E    E E   S E   S S S S E   E   E 
|---------------------------||-------------------------------| 
|---1---(1)-1-1---1-------1-||-------------------------------| 
|---2---(2)-2-2---2-------2-||-------5-7---5-8p7p5-----------| 
|---2---(2)-2-2---2-------2-||---7-----------------7---7---7-| 
|-0-------------0-----0-----||-0-----------------------------| 
|---------------------------||-------------------------------| 


      C 
  E S S  S  S E   E   S S S S E 
|-----0-----------------0----------| 
|---1-1---------------1-1----------| 
|---2-2-----2---------2-2---2------| 
|---2-----------------2------------| 
|-0-0-------------0---0------------| 
|--------0----3-----------0---3----| 
| 
| E S S +S  E   S S S E   E   S S 
|----------------------------------| 
|----------------------------------| 
|-----5-(5)-7---5-7p5-----5--------| 
|---7-----------------7-------7p5\-| 
|-0--------------------------------| 
|----------------------------------| 


  Em 
  E   S S E   S S E   S S E   S S 
|---------------------------------| 
|-----0-0-----0-0-----0-0-----0-0-| 
|-----0-0-----0-0-----0-0-----0-0-| 
|-----2-2-----2-2-----2-2-----2-2-| 
|-----2-2-----2-2-----2-2-----2-2-| 
|-0-------0-------0-------0-------| 
| 
| S S S S S S S S S S S S S S S S 
|---------------------------------| 
|---------------------------------| 
|---------------------------------| 
|-0h2-2-2-------------------------| 
|---------0h2-2-2-----------------| 
|-----------------3-3-3-3-3-3-3-3-| 


  Am 
  E S S S S E E S S S S E      E  S S S S E E S S S S   E 
|-----0-----------0---------|-------0-----------0-------------| 
|---1-1---------1-1---------|-----1-1---------1-1-------------| 
|---2-2---2-----2-2---2-----|-----2-2---2-----2-2---2---------| 
|---2-----------2-----------|-----2-----------2---------------| 
|-0-0---------0-0-----------|--0--0---------0-0---------------| 
|-------0---3-------0---3---|---------0---3-------0-----3-----| 
| 
|                                                 |---3---| 
| E E   S S E E E   S E   S   +H.                 E   E   E 
|-------------------5-7---8-|-(8)-----------------7---8---7---| 
|---1-----------------------|---------------------------------| 
|---2-----2-----------------|---------------------------------| 
|---2-----------------------|---------------------------------| 
|-0-0---------0-0-----------|---------------------------------| 
|-------0---3---------------|---------------------------------| 


  E S S  S  S E E S S S S   E 
|-----0-------------0-----------| 
|---1-1-----------1-1-----------| 
|---2-2-----2-----2-2---2-------| 
|---2-------------2-------------| 
|-0-0-----------0-0-------------| 
|--------0----3-------0-----3---| 
| 
|                     |---3---| 
| E S S +H            E   E   E 
|-5-----------------------------| 
|---8-5-(5)-------------------8-| 
|---------------------7---9-----| 
|-------------------------------| 
|-------------------------------| 
|-------------------------------| 


  Em                                  Am 
   E     S S E    S S  E  S S E S S   E S S S S E  E    S S S S E 
|-----------------------------------|-----0---------------0---------| 
|--------0-0------0-0-----0-0---0-0-|---1-1-------------1-1---------| 
|--------0-0------0-0-----0-0---0-0-|---2-2---2---------2-2---2-----| 
|--------2-2------2-2-----2-2---2-2-|---2---------------2-----------| 
|--------2-2------2-2-----2-2---2-2-|-0-0----------0----0-----------| 
|--0---------0---------0------0-----|-------0---3-----------0---3---| 
| 
|  E     S S S E.     +Q      E S S   H           +E  a E   E   E 
|-----------------------------------|-------------------------------| 
|-10b12-10-8------------------------|-------------------------------| 
|------------9-7------(7)-----5-----|-----------------------5-------| 
|-------------------------------7-5h|=7-----------(7)-5s7-------7---| 
|-----------------------------------|-------------------------------| 
|-----------------------------------|-------------------------------| 


  C     G         Am              C     G         Am 
  E S S  E    S S E E   +S  S E   E S S  E    S S E E   +S  S E 
|-------------------------------|--------------------------------| 
|---1-1-------0-0---1---(1)-1-1-|---1-1-------0-0---1---(1)-1-1--| 
|---0-0-------0-0---2---(2)-2-2-|---0-0-------0-0---2---(2)-2-2--| 
|---2-2-------0-0---2---(2)-2-2-|---2-2-------0-0---2---(2)-2-2--| 
|-3---------------0-0---(0)-0-0-|-3---------------0-0---(0)-0-0--| 
|--------3----------------------|--------3-----------------------| 
| 
| E S S +S  S E   E S S +S  S E   E S S +S  S E   E S S +S  S E 
|-------------------------------|--------------------------------| 
|-----0-(0)-----------0-(0)-----|-----0-(0)-----------0-(0)------| 
|---5-------5-5-----5-------5-5-|---5-------5-5-----5-------5-5--| 
|-7---------------7-------------|-7---------------7--------------| 
|-------------------------------|--------------------------------| 
|-------------------------------|--------------------------------| 


  C     G       C     G       C     G     A 
  E S S  E  S S E S S E S S   E S S E S S  H      +W 
|---------------------------|-------------^0----|-(0)----*| 
|---1-1-----0-0---1-1---0-0-|---1-1---0-0-^2----|-(2)----*| 
|---0-0-----0-0---0-0---0-0-|---0-0---0-0-^2----|-(2)----*| 
|---2-2-----0-0---2-2---0-0-|---2-2---0-0-^2----|-(2)----*| 
|-3-------------3-----------|-3-----------^0----|-(0)----*| 
|--------3------------3-----|-------3-----------|--------*| 
| 
| E S S +E  E   E E   E E     Q     Q      H      +W 
|---------------------------|-------------^0----|-(0)----*| 
|-----0-(0)-----------------|-------------^2----|-(2)----*| 
|---5-------5-----5-----5---|-4-----0-----^2----|-(2)----*| 
|-7-------------7-----7-----|-------------^2----|-(2)----*| 
|---------------------------|-------------^0----|-(0)----*| 
|---------------------------|-------------------|--------*| 


Duration Legend 
--------------- 
W - whole; H - half; Q - quarter; E - 8th; S - 16th; T - 32nd; X - 64th; a - acciaccatura 
+ - note tied to previous; . - note dotted; .. - note double dotted 
Uncapitalized letters represent notes that are staccato (1/2 duration) 
Irregular groupings are notated above the duration line 
Duration letters will always appear directly above the note/fret number it represents the 
duration for.  Duration letters with no fret number below them represent rests.  Multi- 
bar rests are notated in the form Wxn, where n is the number of bars to rest for.  Low 
melody durations appear below the staff 

Tablature Legend 
---------------- 
 h   - hammer-on 
 p   - pull-off 
 b   - bend 
 pb  - pre-bend 
 r   - bend release (if no number after the r, then release immediately) 
 /\  - slide into or out of (from/to 'nowhere') 
 s   - legato slide 
 S   - shift slide 
  - natural harmonic 
n  - artificial harmonic 
n(n) - tapped harmonic 
 ~   - vibrato 
 tr  - trill 
 T   - tap 
 TP  - trem. picking 
 PM  - palm muting 
\n/  - tremolo bar dip; n = amount to dip 
 \n  - tremolo bar down 
 n/  - tremolo bar up 
/n\  - tremolo bar inverted dip 
 =   - hold bend; also acts as connecting device for hammers/pulls 
 <>  - volume swell (louder/softer) 
 x   - on rhythm slash represents muted slash 
 o   - on rhythm slash represents single note slash 

Misc Legend 
----------- 
 |  - bar 
||  - double bar 
||o - repeat start 
o|| - repeat end 
*|  - double bar (ending) 
 :  - bar (freetime) 
 $  - Segno 
 &  - Coda 
Tempo markers -  = BPM(8/16=s8/s16), where s8 = swing 8ths, s16 = swing 16ths 

roll up this ad to continue

share this page

See Also: