E-Chords
Rory Gallagher

Tattood Lady Irish Tour 74(Tabs)

Rory Gallagher

Key: E
Gtr I (E A D G B E) - 'Rory Gallagher - Electric Guitar' 


                1st & 2nd Verses 
  Q=128 
              $ 
            Em   Em            C                   D 
 4/4 
  Gtr I 
  H    Q  E E    E E E E E E E E   +E  E E E E E E E 
|-----------0-||-0-0-0-0-0-0-0-0-|-(0)-0-0-0-0-0-0-2--| 
|-----------0-||-0-0-0-0-0-0-0-1-|-(1)-1-1-1-1-1-1-3--| 
|-----------0-||-0-0-0-0-0-0-0-0-|-(0)-0-0-0-0-0-0-2--| 
|-----------2-||-2-2-2-2-2-2-2-2-|-(2)-2-2-2-2-2-2-0--| 
|-----------2-||-2-2-2-2-2-2-2-3-|-(3)-3-3-3-3-3-3----| 
|-----------0-||-0-0-0-0-0-0-0---|--------------------| 


                  Em 
  +E  E E E E E E E   +E  E E E E E E E 
|-(2)-2-2-2-2-2-2-0-|-(0)-0-0-0-0-0-0-0-| 
|-(3)-3-3-3-3-3-3-0-|-(0)-0-0-0-0-0-0-0-| 
|-(2)-2-2-2-2-2-2-0-|-(0)-0-0-0-0-0-0-0-| 
|-(0)-0-0-0-0-0-0-2-|-(2)-2-2-2-2-2-2-2-| 
|-----------------2-|-(2)-2-2-2-2-2-2-2-| 
|-----------------0-|-(0)-0-0-0-0-0-0-0-| 


                  C                   D 
  +E  E E E E E E E   +E  E E E E E E E 
|-(0)-0-0-0-0-0-0-0-|-(0)-0-0-0-0-0-0-2-| 
|-(0)-0-0-0-0-0-0-1-|-(1)-1-1-1-1-1-1-3-| 
|-(0)-0-0-0-0-0-0-0-|-(0)-0-0-0-0-0-0-2-| 
|-(2)-2-2-2-2-2-2-2-|-(2)-2-2-2-2-2-2-0-| 
|-(2)-2-2-2-2-2-2-3-|-(3)-3-3-3-3-3-3---| 
|-(0)-0-0-0-0-0-0---|-------------------| 


                  Em 
  +E  E E E E E E E   +E  E E E E E E E 
|-(2)-2-2-2-2-2-2-0-|-(0)-0-0-0-0-0-0-0-| 
|-(3)-3-3-3-3-3-3-0-|-(0)-0-0-0-0-0-0-0-| 
|-(2)-2-2-2-2-2-2-0-|-(0)-0-0-0-0-0-0-0-| 
|-(0)-0-0-0-0-0-0-2-|-(2)-2-2-2-2-2-2-2-| 
|-----------------2-|-(2)-2-2-2-2-2-2-2-| 
|-----------------0-|-(0)-0-0-0-0-0-0-0-| 


                  C                   D 
  +E  E E E E E E E   +E  E E E E E E E 
|-(0)-0-0-0-0-0-0-0-|-(0)-0-0-0-0-0-0-2-| 
|-(0)-0-0-0-0-0-0-1-|-(1)-1-1-1-1-1-1-3-| 
|-(0)-0-0-0-0-0-0-0-|-(0)-0-0-0-0-0-0-2-| 
|-(2)-2-2-2-2-2-2-2-|-(2)-2-2-2-2-2-2-0-| 
|-(2)-2-2-2-2-2-2-3-|-(3)-3-3-3-3-3-3---| 
|-(0)-0-0-0-0-0-0---|-------------------| 


                  Em 
  +E  E E E E E E E   +E  E E E E E E E 
|-(2)-2-2-2-2-2-2-0-|-(0)-0-0-0-0-0-0-0-| 
|-(3)-3-3-3-3-3-3-0-|-(0)-0-0-0-0-0-0-0-| 
|-(2)-2-2-2-2-2-2-0-|-(0)-0-0-0-0-0-0-0-| 
|-(0)-0-0-0-0-0-0-2-|-(2)-2-2-2-2-2-2-2-| 
|-----------------2-|-(2)-2-2-2-2-2-2-2-| 
|-----------------0-|-(0)-0-0-0-0-0-0-0-| 


                  C                   D 
  +E  E E E E E E E   +E  E E E E E E E 
|-(0)-0-0-0-0-0-0-0-|-(0)-0-0-0-0-0-0-2-| 
|-(0)-0-0-0-0-0-0-1-|-(1)-1-1-1-1-1-1-3-| 
|-(0)-0-0-0-0-0-0-0-|-(0)-0-0-0-0-0-0-2-| 
|-(2)-2-2-2-2-2-2-2-|-(2)-2-2-2-2-2-2-0-| 
|-(2)-2-2-2-2-2-2-3-|-(3)-3-3-3-3-3-3---| 
|-(0)-0-0-0-0-0-0---|-------------------| 


                                          Chorus 
                  Em                       A5                E5 
  +E  E E E E E E E   +E  E E E E E E E    E E E E E E E E   E E E E E E E E 
|-(2)-2-2-2-2-2-2-0-|-(0)-0-0-0-0-0-0-0-||-----------------|-----------------| 
|-(3)-3-3-3-3-3-3-0-|-(0)-0-0-0-0-0-0-0-||-----------------|-----------------| 
|-(2)-2-2-2-2-2-2-0-|-(0)-0-0-0-0-0-0-0-||-----------------|-----------------| 
|-(0)-0-0-0-0-0-0-2-|-(2)-2-2-2-2-2-2-2-||-2-2-4-2-2-2-4-2-|-----------------| 
|-----------------2-|-(2)-2-2-2-2-2-2-2-||-0-0-0-0-0-0-0-0-|-2-2-4-2-2-2-4-2-| 
|-----------------0-|-(0)-0-0-0-0-0-0-0-||-----------------|-0-0-0-0-0-0-0-0-| 


          C#mB    E                           A5               E5 
  E E E E q  q    S E S E S S +S  S E E  E    E E E E Q  E E   E E E E E E E E 
|---------4--2--|---------------------------|----------------|-----------------| 
|---------5--4--|-9-9-9-9-------------------|----------------|-----------------| 
|---------6--4--|-9-9-9-9-9-9-(9)-----------|----------------|-----------------| 
|---------6--4--|-9-9-9-9-9-9-(9)-----------|-2-2-4-2-5--4-2-|-----------------| 
|-2-2-4-2-4--2--|-7-7-7-7-7-7-(7)-7-7-7-(0)-|-0-0-0-0-0--0-0-|-2-2-4-2-5-2-4-2-| 
|-0-0-0-0-------|-0-0-0-0-0-0-(0)-0-0-0-(0)-|----------------|-0-0-0-0-0-0-0-0-| 


                                       Bridge 
  C#m               B                   A                C#m 
  E E E E E E E E   E E E E E E  Q       H.      +E  E    H.      +E  E 
|-4-4-4-4-4-4-4---|------------------||-^5-------------|-^4-------(4)----| 
|-5-5-5-5-5-5-5---|-7-7-7-7-7-7-(0)--||-^5-------(5)---|-^5-------(5)----| 
|-6-6-6-6-6-6-6---|-8-8-8-8-8-8-(0)--||-^6-------(6)---|-^6-------(6)----| 
|-6-6-6-6-6-6-6s9-|-9-9-9-9-9-9-(0)--||-^7-------(7)---|-^6-------(6)----| 
|-4-4-4-4-4-4-4---|-9-9-9-9-9-9-(0)--||-^7-------(7)---|-^4-------(4)----| 
|-----------------|-7-7-7-7-7-7------||-^5-------(5)---|-----------------| 


  G#m          B5                      A                C#m 
   H.      +E  E   E E E E E E E  E     H.      +E  E    H.      +E  E 
|-^4-------(4)---|-------------------|-^5-------------|-^4-------(4)----| 
|-^4-------(4)---|-------------------|-^5-------(5)---|-^5-------(5)----| 
|-^4-------(4)-4-|-4-4-4-4-4-4-4-----|-^6-------(6)---|-^6-------(6)----| 
|-^6-------(6)-4-|-4-4-4-4-4-4-4-(7)-|-^7-------(7)---|-^6-------(6)----| 
|-^6-------(6)-2-|-2-2-2-2-2-2-2-----|-^7-------(7)---|-^4-------(4)----| 
|-^4-------(4)---|-------------------|-^5-------(5)---|-----------------| 


                                        Piano Solo 
                              To Coda 
  G#m          B5                        Em          C 
   H.      +E  E   E E E E E E E  E      Q  Q  E E E E   Q  E S S E E E E 
|-^4-------(4)---|--------------------||----0----0---0-|-0----------------| 
|-^4-------(4)---|--------------------||----0----0---1-|-1----------------| 
|-^4-------(4)-4-|-4-4-4-4-4-4-4-(0)--||-0--0----0---0-|-0----------------| 
|-^6-------(6)-4-|-4-4-4-4-4-4-4-(0)--||-2--2----2---2-|-2--------------0-| 
|-^6-------(6)-2-|-2-2-2-2-2-2-2------||-2--2----2---3-|-3--3-3-3-3-2-0---| 
|-^4-------(4)---|--------------------||-0--0----0-----|------------------| 


       D5          Em 
  +Q   E S S E E E E   +Q   S S E E E S S E 
|------------------0-|-(0)------------------| 
|------3-3-3-3-3-3-0-|-(0)------------------| 
|------2-2-2-2-2-2-0-|-(0)------------------| 
|-(0)--0-0-0-0-0-0-2-|-(2)------0-2-0-------| 
|------------------2-|-(2)--0h2-------2p0---| 
|------------------0-|-(0)----------------3-| 


  Em                C 
  Q  E. S E E E E   Q  E S S S S E E E 
|----3--3-3-3-----|-0-------------------| 
|----5--5-5-5---3-|-1-------------------| 
|----4--4-4-4-----|-0--0-0-0------------| 
|-----------------|-2--------0h2-0---0--| 
|-----------------|-3--------------3----| 
|-0---------------|---------------------| 


       D5          Em 
  +Q   E S S E E E E   +E  E E E E E E  E 
|------------------0-|-(0)-----------------|| 
|------3-3-3-3-3-3-0-|-(0)-----------------|| 
|------2-2-2-2-2-2-0-|-(0)-0-0-0-0-0-0-(0)-|| 
|-(0)--0-0-0-0-0-0-2-|-(2)-2-2-2-2-2-2-(0)-|| 
|------------------2-|-(2)-2-2-2-2-2-2-(0)-|| 
|------------------0-|-(0)-0-0-0-0-0-0-(0)-|| 


 Guitar Solo 
  N.C. 
   S     E      S     E      S      S       +S    S      E      E      E 
|-12----12-----12----12-----12-----12------(12)--12-----12-----12-----12-----| 
|-15b17-15pb17-15b17-15pb17-15pb17-15pb17==(15)r-15pb17-15pb17-15pb17-15pb17-| 
|----------------------------------------------------------------------------| 
|----------------------------------------------------------------------------| 
|----------------------------------------------------------------------------| 
|----------------------------------------------------------------------------| 


   S      E      S      E      S      S       +Q     E  E 
|-12-----12-----12-----12-----12-----12------(12)\-----12-| 
|-15pb17-15pb17-15pb17-15pb17-15pb17-15pb17==(15)r\----12-| 
|---------------------------------------------------------| 
|---------------------------------------------------------| 
|---------------------------------------------------------| 
|---------------------------------------------------------| 


                                              ~~ 
   E     +E   S  S  E  E  S  S  S  S  S  S    Q   S  S  S  S  S  S  S  S  S  S  S  S 
|-14b16-(14)-14p12----12-14p12----12-------|-----------------------------------------| 
|------------------12----------14----14p12-|-----------12-14-12-15-14-12----12-14-12-| 
|------------------------------------------|-13--13-13-------------------14----------| 
|------------------------------------------|-----------------------------------------| 
|------------------------------------------|-----------------------------------------| 
|------------------------------------------|-----------------------------------------| 


   |--3--|              |--3--| 
   S  S  S  S  S  S  S  S  S  S  S  S  S  S  S  S  S  S 
|-------------------------------------------------------| 
|-15p14p12-15-15p14p12-15p14p12----14-12----14-12-------| 
|-------------------------------14-------14-------14-12-| 
|-------------------------------------------------------| 
|-------------------------------------------------------| 
|-------------------------------------------------------| 


                  ~~ 
   S  S  E  E  E  Q   E  E 
|--------------------------| 
|-------12-12--------------| 
|-13----13-13--------------| 
|----14-------14-14--14\---| 
|--------------------------| 
|--------------------------| 


            ~~~~~~~~~~~~~~~ 
  E S S E E Q      Q 
|-------------------------| 
|-------------------------| 
|-------7-9-9pb11--9pb11--| 
|---7h9-------------------| 
|-------------------------| 
|-------------------------| 


 ~~~~~~~~~~~~~~ 
                                 |-3-| 
  Q      Q       E E     +E  E   S S S E E S S E E S S E 
|------------------------------|-5h7p5---5----------------| 
|---------------10-------------|-5-----7---7p5---5-7p5----| 
|-9pb11--9pb11-----9pb11r(9)p7-|-6-------------6-------6--| 
|------------------------------|--------------------------| 
|------------------------------|--------------------------| 
|------------------------------|--------------------------| 


          |-3-|   |-3-| 
  E E E E S S S E S S S E   S S S S S S S S S S S S E e 
|-------------------------|------------------------------| 
|-4-5-7-5-4h5p4-----------|------------------------------| 
|---------------6-4h6p4---|-----4-----4-----4-----4------| 
|-----------------------6-|-4h6---4h6---4h6---4h6---6-6\-| 
|-------------------------|------------------------------| 
|-------------------------|------------------------------| 


  S E S E S S +S  S E E  E 
|----------------------------| 
|----------------------------| 
|----------------------------| 
|----------------------------| 
|-2-2-2-2-2-2-(2)-2-2-2p(0)--| 
|----------------------------| 


                   |-3-|       |-3-|   |-3-| 
   E E S S e E E E S S S   E E S S S E S S S E E E 
|------------5-4-5-4h5p4-|---------------------------| 
|-^5-7-7p5---------------|-7-5-4h5p4-----------------| 
|-^6-------6-------------|-----------6-4h6p4---4-6b8-| 
|-^7---------------------|-------------------6-------| 
|------------------------|---------------------------| 
|------------------------|---------------------------| 


  +E  E    E    E    E    E    E E 
|-----------------------------------| 
|-----7----7----7----7----7---------| 
|-(6)-6pb8-6pb8-6pb8-6pb8-6pb8-6-0--| 
|-----------------------------------| 
|-----------------------------------| 
|-----------------------------------| 


                    3rd Verse 
     D.S. al Coda & 
               Em    Em            C                   D                   Em 
  E E E E Q.   E     E E E E E E E E   +E  E E E E E E E   +E  E E E E E E E 
|-----------------||-0-0-0-0-0-0-0-0-|-(0)-0-0-0-0-0-0-2-|-(2)-2-2-2-2-2-2-0--| 
|--------------0--||-0-0-0-0-0-0-0-1-|-(1)-1-1-1-1-1-1-3-|-(3)-3-3-3-3-3-3-0--| 
|---4---4------0--||-0-0-0-0-0-0-0-0-|-(0)-0-0-0-0-0-0-2-|-(2)-2-2-2-2-2-2-0--| 
|--------------2--||-2-2-2-2-2-2-2-2-|-(2)-2-2-2-2-2-2-0-|-(0)-0-0-0-0-0-0-2--| 
|-2---2---2----2--||-2-2-2-2-2-2-2-3-|-(3)-3-3-3-3-3-3---|-----------------2--| 
|--------------0--||-0-0-0-0-0-0-0---|-------------------|-----------------0--| 


                                      C 
  +E  E E E E E E E   +E  E E E E E E E 
|-(0)-0-0-0-0-0-0-0-|-(0)-0-0-0-0-0-0-0-| 
|-(0)-0-0-0-0-0-0-0-|-(0)-0-0-0-0-0-0-1-| 
|-(0)-0-0-0-0-0-0-0-|-(0)-0-0-0-0-0-0-0-| 
|-(2)-2-2-2-2-2-2-2-|-(2)-2-2-2-2-2-2-2-| 
|-(2)-2-2-2-2-2-2-2-|-(2)-2-2-2-2-2-2-3-| 
|-(0)-0-0-0-0-0-0-0-|-(0)-0-0-0-0-0-0---| 


                  D                   Em 
  +E  E E E E E E E   +E  E E E E E E E 
|-(0)-0-0-0-0-0-0-2-|-(2)-2-2-2-2-2-2-0-| 
|-(1)-1-1-1-1-1-1-3-|-(3)-3-3-3-3-3-3-0-| 
|-(0)-0-0-0-0-0-0-2-|-(2)-2-2-2-2-2-2-0-| 
|-(2)-2-2-2-2-2-2-0-|-(0)-0-0-0-0-0-0-2-| 
|-(3)-3-3-3-3-3-3---|-----------------2-| 
|-------------------|-----------------0-| 


                                      C 
  +E  E E E E E E E   +E  E E E E E E E 
|-(0)-0-0-0-0-0-0-0-|-(0)-0-0-0-0-0-0-0-| 
|-(0)-0-0-0-0-0-0-0-|-(0)-0-0-0-0-0-0-1-| 
|-(0)-0-0-0-0-0-0-0-|-(0)-0-0-0-0-0-0-0-| 
|-(2)-2-2-2-2-2-2-2-|-(2)-2-2-2-2-2-2-2-| 
|-(2)-2-2-2-2-2-2-2-|-(2)-2-2-2-2-2-2-3-| 
|-(0)-0-0-0-0-0-0-0-|-(0)-0-0-0-0-0-0---| 


                  D                   Em 
  +E  E E E E E E E   +E  E E E E E E E 
|-(0)-0-0-0-0-0-0-2-|-(2)-2-2-2-2-2-2-0-| 
|-(1)-1-1-1-1-1-1-3-|-(3)-3-3-3-3-3-3-0-| 
|-(0)-0-0-0-0-0-0-2-|-(2)-2-2-2-2-2-2-0-| 
|-(2)-2-2-2-2-2-2-0-|-(0)-0-0-0-0-0-0-2-| 
|-(3)-3-3-3-3-3-3---|-----------------2-| 
|-------------------|-----------------0-| 


                      Outro Solo 
                       N.C. 
  +E  E E E E E E E     S     E      S      E      S      S       +S    S      E      E      E 
|-(0)-0-0-0-0-0-0-0-||-12----12-----12-----12-----12-----12------(12)--12-----12-----12-----12-----| 
|-(0)-0-0-0-0-0-0-0-||-15b17-15pb17-15pb17-15pb17-15pb17-15pb17==(15)r-15pb17-15pb17-15pb17-15pb17-| 
|-(0)-0-0-0-0-0-0-0-||-----------------------------------------------------------------------------| 
|-(2)-2-2-2-2-2-2-2-||-----------------------------------------------------------------------------| 
|-(2)-2-2-2-2-2-2-2-||-----------------------------------------------------------------------------| 
|-(0)-0-0-0-0-0-0-0-||-----------------------------------------------------------------------------| 


   S     E      S      E      S      S       +S    S      E      E      E 
|-12----12-----12-----12-----12-----12------(12)--12-----12-----12-----12-----| 
|-15b17-15pb17-15pb17-15pb17-15pb17-15pb17==(15)r-15pb17-15pb17-15pb17-15pb17-| 
|-----------------------------------------------------------------------------| 
|-----------------------------------------------------------------------------| 
|-----------------------------------------------------------------------------| 
|-----------------------------------------------------------------------------| 


   S     E      S      E      S      S       +S    S      S      S       S      S      S      S 
|-12----12-----12-----12-----12-----12------(12)--12-----12-----12------12-----12-----12-----12------| 
|-15b17-15pb17-15pb17-15pb17-15pb17-15pb17==(15)r-15pb17-15pb17-15pb17==15pb17-15pb17-15pb17-15pb17==| 
|----------------------------------------------------------------------------------------------------| 
|----------------------------------------------------------------------------------------------------| 
|----------------------------------------------------------------------------------------------------| 
|----------------------------------------------------------------------------------------------------| 


          ~~~~~~~~~~~~~~~~~~~~~~~~~~~~~~~~~~~~~~~~~~~~~~~~~~~~~~~~~~~~~~~~~~~~~~~ 
   S      S      S      S       S      S      S      S       S      S      S      S       S      S  S  S 
|-12-----12-----12-----12------12-----12-----12-----12------12-----12-----12-----12----------------------| 
|-15pb17-15pb17-15pb17-15pb17==15pb17-15pb17-15pb17-15pb17==15pb17-15pb17-15pb17-15pb17==15pb17-15-12-15-| 
|--------------------------------------------------------------------------------------------------------| 
|--------------------------------------------------------------------------------------------------------| 
|--------------------------------------------------------------------------------------------------------| 
|--------------------------------------------------------------------------------------------------------| 


                                                                            ~~ 
                                                    |--3--| 
   S  S  S  S  S  S  S  S  S  S  S  S  E  E    +E   S  S  S  E  E  S  S  E  Q 
|-------------------------------------------|----------------------------------| 
|-15-12-15-12-15-12-15-12-15-12-14-12-14-15-|-(15)-12h13p12--------------------| 
|-------------------------------------------|---------------14-12-11-12-11-----| 
|-------------------------------------------|------------------------------14--| 
|-------------------------------------------|----------------------------------| 
|-------------------------------------------|----------------------------------| 


   S  S  S  S  S  S  S  S  S  S  S  S  S  S  S  S 
|-------------------------------------------------| 
|-------------------------------------------------| 
|----11-12-14-12-11----11-12-14-12-11----11-12-14-| 
|-14----------------14----------------14----------| 
|-------------------------------------------------| 
|-------------------------------------------------| 


   |--3--|              |--3--| 
   S  S  S  S  S  S  S  S  S  S  S  S  S  S  S  S  S  S 
|-------------------------------------------------------| 
|-------------------------------------------------------| 
|-12p11h12-14-14p12p11-14p12p11----11-12-11----11-------| 
|-------------------------------14----------14----12-11-| 
|-------------------------------------------------------| 
|-------------------------------------------------------| 


                       |--3--| 
   e  e  e  E       E  S  S  S  S  S  S  S 
|------------------------------------------| 
|----------12b12.5-------------------------| 
|----------12b12.5-------------------------| 
|----12-14---------14-12h14p12----12-------| 
|-14---------------------------14----14-12-| 
|------------------------------------------| 


   e  e  S  S  e  S  S  S  S  e  S  S 
|-------------------------------------| 
|-------------------------------------| 
|-------------------------------------| 
|----------12-14----------12-14-------| 
|----12-14----------12-14----------12-| 
|-15-------------15-------------15----| 


   S  S  e  S  S  S  S  e  S  S  S  S  e    E.      S  E.  S  E  E  E   E 
|----------------------------------------|---------------------------------| 
|----------------------------------------|-12b12.5---------------------(0)-| 
|----------------------------------------|-12b12.5----12-----12-12-----(0)-| 
|----12-14----------12-14----------12-14-|---------14-----14-------14\-----| 
|-14----------12-14----------12-14-------|---------------------------------| 
|----------15-------------15-------------|---------------------------------| 


                                                                     ~~ 
  S  S     +S   S      S      S      S      S      S      +S  S  S S E. 
|-------------------------------------------------------------------------| 
|---10b12-(10)-10pb12-10pb12-10pb12-10pb12-10pb12-10pb12r(10)p8-10-8------| 
|--------------------------------------------------------------------9----| 
|-------------------------------------------------------------------------| 
|-------------------------------------------------------------------------| 
|-------------------------------------------------------------------------| 


                                                                     ~~~~ 
  S  S     +S   S      S      S      S      S      S      +S  S  S S E. 
|-----------------------------------------------------------------------| 
|---10b12-(10)-10pb12-10pb12-10pb12-10pb12-10pb12-10pb12r(10)p8-10-8----| 
|--------------------------------------------------------------------9--| 
|-----------------------------------------------------------------------| 
|-----------------------------------------------------------------------| 
|-----------------------------------------------------------------------| 


 ~~~~~ 
  +S  S  S      S      S      S      S      S      S      S      S      S      S      S      S      S 
|---------------------------------------------------------------------------------------------------------| 
|-----8-10pb12-10pb12-10pb12-10pb12-10pb12-10pb12-10pb12-10pb12-10pb12-10pb12-10pb12-10pb12-10pb12-10pb12-| 
|-(9)-----------------------------------------------------------------------------------------------------| 
|---------------------------------------------------------------------------------------------------------| 
|---------------------------------------------------------------------------------------------------------| 
|---------------------------------------------------------------------------------------------------------| 


   S      S      S      S      S      S      S      S      S      S      S      S      S      S S  S 
|----------------------------------------------------------------------------------------------------| 
|-10pb12-10pb12-10pb12-10pb12-10pb12-10pb12-10pb12-10pb12-10pb12-10pb12-10pb12-10pb12-10pb12-10-0-10-| 
|----------------------------------------------------------------------------------------------------| 
|----------------------------------------------------------------------------------------------------| 
|----------------------------------------------------------------------------------------------------| 
|----------------------------------------------------------------------------------------------------| 


   S S S S  S S S S  S S S S  S S  E 
|--------0--------0--------0-------------| 
|-10-0-8---10-0-8---10-0-8---10-0-10b12--| 
|----------------------------------------| 
|----------------------------------------| 
|----------------------------------------| 
|----------------------------------------| 


   +E   E  E      +S  S  S S E e e   S S S S S S S S S S S S a S S E 
|------10-10-----------------------|---------------------------------| 
|-(10)----10pb12r(10)p8-10-8---8-7-|-8-7---8-7---8-7---7-7---7s8s7s8-| 
|----------------------------9-----|-----9-----9-----9-----9---------| 
|----------------------------------|---------------------------------| 
|----------------------------------|---------------------------------| 
|----------------------------------|---------------------------------| 


                  ~~ 
          |-3-| 
  E     E S S S E Q.   S S    S S S S S S  S S S S S S  E. S 
|----------------------0-0-|-12p0-0-9-0-0-12p0-0-9p0-0-12\-0-| 
|-8pb10r8-7h8p7------------|---------------------------------| 
|---------------9-9--------|---------------------------------| 
|--------------------------|---------------------------------| 
|--------------------------|---------------------------------| 
|--------------------------|---------------------------------| 


                                            |-3-| |-3-| |-3-| |-3-| |-3-| 
  S S S S S S S S S S S S S S S S   S S S S S S S S S S S S S S S S S S S S S 
|-0-5p0-5p0-5p0-5p0-5p0-5p0-5p0-5p|=0-5p0-5-5p0h5-5p0h5-5p0h5-5p0h5-5p0-0-0-0--| 
|---------------------------------|--------------------------------------------| 
|---------------------------------|--------------------------------------------| 
|---------------------------------|--------------------------------------------| 
|---------------------------------|--------------------------------------------| 
|---------------------------------|--------------------------------------------| 


  S S  S S S S  S S S S  S S S S  S S   S S  S S S S  S S S S  S S S S  S S 
|-7p0-10p0-7p0-10p0-7p0-10p0-7p0-10p0-|-7p0-10p0-7p0-10p0-7p0-10p0-7p0-10p0-| 
|-------------------------------------|-------------------------------------| 
|-------------------------------------|-------------------------------------| 
|-------------------------------------|-------------------------------------| 
|-------------------------------------|-------------------------------------| 
|-------------------------------------|-------------------------------------| 


  S S  S S S S  S S S S  S S S S  E 
|-0-0-10p0-7p0-10p0-7p0-10p0-7p0-------| 
|--------------------------------10b12-| 
|--------------------------------------| 
|--------------------------------------| 
|--------------------------------------| 
|--------------------------------------| 


                         ~ 
   +Q    E E  E E  E E   Q  S S E Q      E S S 
|----------------------|-------------------0-0-| 
|-(10)--10-8-10-8------|-----------------------| 
|-----------------11-9-|-9--9p7---7b7.5--x-----| 
|----------------------|--------9--------------| 
|----------------------|-----------------------| 
|----------------------|-----------------------| 


  a S E S E S S +S  S E E E   a S E S E S S +S  S S S E S S 
|---0-0-0-0-0-0-(0)-0-0-0-0-|---0-0-0-0-0-0-(0)-0-0-0-0-0-0-| 
|-3s5-5-5-5-5-5-(5)-5-5-5-3-|-3s5-5-5-5-5-5-(5)-5-5-5-5-0-3-| 
|---------------------------|-------------------------------| 
|---------------------------|-------------------------------| 
|---------------------------|-------------------------------| 
|---------------------------|-------------------------------| 


  S S S S S S S S S S S S S S S S 
|-0-0-0-0-0-0-0-0-3-3-3-5-5-5-5-0-| 
|-3-3-3-5-5-5-7-7-5-5-5-5-5-5-5-0-| 
|---------------------------------| 
|---------------------------------| 
|---------------------------------| 
|---------------------------------| 


  a S E S E S S +S  S S S E E   a S E S E S S +S  S S S S S S S 
|---0-0-0-0-0-0-(0)-0-0-0-0-0-|---0-0-0-0-0-0-(0)-0-0-0-3-3-0-0-| 
|-3s5-5-5-5-5-5-(5)-5-5-5-5-0-|-3s5-5-3-3-5-5-(5)-7-7-7-5-5-7-7-| 
|-----------------------------|---------------------------------| 
|-----------------------------|---------------------------------| 
|-----------------------------|---------------------------------| 
|-----------------------------|---------------------------------| 


  S S  S  S S S S S S S S S S S S S   S E S E E S E S E E 
|-0-0--0--0-0-0-0-0-0-0-0-0-0-0-0-0-|-0-0-0-0-0-0-0-0-0-0-| 
|-8-8-10-10-8-8-8-8-8-7-7-7-5-5-3-3-|-5-5-5-5-5-5-5-5-5-3-| 
|-----------------------------------|---------------------| 
|-----------------------------------|---------------------| 
|-----------------------------------|---------------------| 
|-----------------------------------|---------------------| 


                       ~~~~~                     ~~~~~ 
  a Q  E. S Q   E E    S  E  S  E  S  S  +S   S  E  E  E 
|---0--0--0-0-------|------------------------------------| 
|-3s5--5--5-5/--x-x-|------------------------------------| 
|---------------x-x-|----------12----14-(14)-12----------| 
|---------------x-x-|-14-14-14----14-14-(14)----14-14-12-| 
|-------------------|------------------------------------| 
|-------------------|------------------------------------| 


   ~~~~~ 
   S  E  S  E  S  S  +S   S  S     +S   E  E 
|---------------------------------------------| 
|---------------------------------------------| 
|----------12----14-(14)-14-14b16r(14)-12-----| 
|-14-14-14----14-14-(14)------------------14--| 
|---------------------------------------------| 
|---------------------------------------------| 


                                                 |--3--| 
   S  e  S  S S  S  S  S  S  S  S  S  S  e    e  S  S  S  S  S  e  E  E  E  E 
|------------------------------------------|----------------------------------| 
|-15p12-15p12-x-15p12----15p12----15p12----|-15-12h15p12----12-10-------------| 
|---------------------14-------14-------14-|-------------14-------12-11-12-11-| 
|------------------------------------------|----------------------------------| 
|------------------------------------------|----------------------------------| 
|------------------------------------------|----------------------------------| 


                                      |--3--|       |--3--| 
   S  S S  S  S S  S  S S  S  S S  e  S  S  S    e  S  S  S  e  e  e  e  E  E 
|---------------------------------------------|-------------------------------| 
|---------------------------------------------|----------------------12-------| 
|-12-11-9-12-11-9-12-11-9-12-11-9-12-11h12p11-|----------------------12-14\---| 
|---------------------------------------------|-14-12h14p12----12-14----------| 
|---------------------------------------------|-------------14----------------| 
|---------------------------------------------|-------------------------------| 


  E  E      +E   +S  S  E E E E 
|-------------------------------| 
|---10b12==(10)r(10)p8-10-8-7---| 
|-----------------------------9-| 
|-------------------------------| 
|-------------------------------| 
|-------------------------------| 


  ~~~~~~~~~~~~~~~~~~~~~~~~~~~ 
  S E S E S S +H       S E S E S S +S  S E E E 
|--------------------|--------------------------| 
|--------------------|-------8-7-8-(8)-7--------| 
|-9-9-9-9-9-9-(9)----|-9-9-9-------------9-9-7--| 
|--------------------|--------------------------| 
|--------------------|--------------------------| 
|--------------------|--------------------------| 


   S     +E   S      E      S      S      +S  S  S S E E 
|--------------------------------------------------------| 
|-10b12-(10)-10pb12-10pb12-10pb12-10pb12r(10)-8h10p8-7-7-| 
|--------------------------------------------------------| 
|--------------------------------------------------------| 
|--------------------------------------------------------| 
|--------------------------------------------------------| 


                            H.=H 
                            Em 
                                  TP 
  S E S E S S +S  S E E E   H    +H 
|-------------------------|-0----(0)----| 
|-------------------------|-0----(0)----| 
|-9-9-7-7---7-(7)---------|-0----(0)----| 
|---------9-------9-7-5-7-|-2----(2)----| 
|-------------------------|-2----(2)----| 
|-------------------------|-0----(0)----| 


  Em7                             Em 
   H    H         +W              Q  Q  H 
|-^0------------|---------------|-0----------*| 
|-^3------------|---------------|-0----------*| 
|-^0----0tr2----|-(0tr2)--------|-0----------*| 
|-^2------------|---------------|-2----------*| 
|-^2------------|---------------|-2----------*| 
|-^0------------|---------------|-0----------*| 


 

roll up this ad to continue

share this page

See Also: