E-Chords
Rory Gallagher

Ill Admit You're Gone(Tabs)

Rory Gallagher

Key: G
Intro | 0:00 

                                          Bbsus4  D 
D|-0----0--0---0--0--------------------------0~--<7>---| 
B|------------------0--1---1--1----1--1------3~--<7>---| 
G|----0------0-----------0-------0-----------2~--<7>---| 
D|-5-------4--------0--3------2-------0h2p0--0~--<7>---| 
G|----------------4-----------------------5--2~--<7>---| 
D|-------------------------------------------0~--<7>---| 


verse 1 | 0:10 

              Bbsus4 
D|--------------0---0-0---0-0-0----0---0-0---0-0-0---| 
B|-0--1--3--5---3---3-3---3-3-3----3---3-3---3-3-3---| 
G|--------------2---2-2---2-2-2----2---2-2---2-2-2---| 
D|--------------0---0-0---0-0-0----0---0-0---0-0-0---| 
G|-0--2--4--5---2---2-2---2-2-2----2---2-2---2-2-2---| 
D|--------------0---0-0---0-0-0----0---0-0---0-0-0---| 

              Gsus4                G 
D|--------------0---0-0-0----------0--0-0-0-0--------| 
B|-7--8--5--7---1---1-1-1--0h1p0---0--0-0-0-0--------| 
G|--------------0---0-0-0-------2--0--0-0-0-0--------| 
D|--------------0---0-0-0----------0--0-0-0-0--------|  Play Section 4x 
G|-7--9--5--7---0---0-0-0----------0--0-0-0-0--------| 
D|--------------0---0-0-0----------0--0-0-0-0--------| 


Chorus | 1:07 

D|------------------|------------------------------0---| 
B|-----0-----0------|-----0-----0----------1-----1---1-| 
G|---0-----0--------?---0-----0----------0-----0-------| 
D|-5-----4-------0--?-5-----4-------0--3-----2---------| 
G|-------------4----|-------------4--------------------| 
D|------------------|----------------------------------| 
                                                                                D 
D|------------------|-----------------------------------------------------------7-| 
B|-----0-----0------|-----0-----0-------------5---------------5-----------------7-| 
G|---0-----0--------?---0-----0-------------5---5-----------5---5-------------7-7-| 
D|-5-----4-------0--?-5-----4-------0-----5-------5---5---5-------5---5-----7---7-| 
G|-------------4----|-------------4-----5-----------5---5-----------5---5/7-----7-| 
D|------------------|-------------------------------------------------------------| 
          C D 
D|-7-7-7--5/7-7-7-7-7---7-7-7-7-7-| 
B|-7-7-7--5/7-7-7-7-7---7-7-7-7-7-| 
G|-7-7-7--5/7-7-7-7-7---7-7-7-7-7-| 
D|-7-7-7--5/7-7-7-7-7---7-7-7-7-7-| 
G|-7-7-7--5/7-7-7-7-7---7-7-7-7-7-| 
D|--------------------------------| 


Interlude | 1:36 Play Verse section 2x 


Bridge | 2:05 Strum 

    Bb   F   G#2   Bb    Bb   F   G#2  Gm 
D|--3----3----1----3--|--3----3----1----0--| 
B|--3----1----1----3--|--3----1----1----3--| 
G|--3----2----3----3--|--3----2----3----3--| 
D|--3----3----1----3--|--3----3----1----0--| 
G|--3----x----1----3--|--3----x----1----0--| 
D|--x----x----x----x--|--x----x----x----x--| 


verse 2 | 2:45 Play section 4x 


Chorus | 3:43 Repeat D chord until end 


************************************ 

| x   Dead note 
| g   Grace note 
| (n) Ghost note 
| h   Hammer-on 
| p   Pull-off 
| r   Release 
| >   Accented note 
| t   Tapping 
| b   Bend 
| br  Bend release 
| pb  Pre-bend 
| pbr Pre-bend release 
| /   Slide up 
| \   Slide down 
| ~   Vibrato 
| s   Slap 
| P   Pop 
| PM  Palm mute 
| TR  Trill 
| N   Tremolo 

************************************ 

roll up this ad to continue

share this page

See Also: