E-Chords
Rory Gallagher

Country Mile(Tabs)

Rory Gallagher

Key: E
Gtr I (E A D G B E) - 'Rory Gallagher - Electric Guitar' 
Gtr II (E A D G B E) - 'Rory Gallagher - Electric Guitar' 


 Intro 
  Q=218(8=s8) 
  N.C. 
 4/4 
  Gtr I 
                            |-3-|       |-3-|     |-3-| 
  H    Q  E E   E E E E E E E E E   E E E E E E E E E E 
|-------------|-------------------|---------------------| 
|-------------|-------------------|---------------------| 
|-------------|-------------------|---------------------| 
|-------------|-------------------|---------------------| 
|-------------|-------------------|---------------------| 
|-----------3-|-3-3-6-3-3-3-6p3-3-|-3-3-6p3-3-3-3-6p3-3-| 


        |-3-|     |-3-|       |-3-|     |-3-|       |-3-|     |-3-| 
    E E E E E E E E E E   E E E E E E E E E E   E E E E E E E E E E 
||----------------------|---------------------|----------------------|| 
||o---------------------|---------------------|---------------------o|| 
||----------------------|---------------------|----------------------|| 
||----------------------|---------------------|----------------------|| 
||o---------------------|---------------------|---------------------o|| 
||--3-3-6p3-3-3-3-6p3-3-|-3-3-6p3-3-3-3-6p3-3-|-3-3-6p3-3-3-3-6p3-3--|| 


   1st Verse 
    N.C. 
        |-3-|     |-3-|       |-3-|     |-3-|       |-3-|     |-3-| 
    E E E E E E E E E E   E E E E E E E E E E   E E E E E E E E E E 
||----------------------|---------------------|---------------------| 
||o---------------------|---------------------|---------------------| 
||----------------------|---------------------|---------------------| 
||----------------------|---------------------|---------------------| 
||o---------------------|---------------------|---------------------| 
||--3-3-6p3-3-3-3-6p3-3-|-3-3-6p3-3-3-3-6p3-3-|-3-3-6p3-3-3-3-6p3-3-| 


                          Bb5         F 
      |-3-|     |-3-| 
  E E E E E E E E E E      W           W 
|----------------------||-----------|-------| 
|---------------------o||-11--------|-10----| 
|----------------------||-10--------|-10----| 
|----------------------||--8--------|-10----| 
|---------------------o||-----------|--8----| 
|-3-3-6p3-3-3-3-6p3-3--||-----------|-------| 


  Bb5   F       G5 
   H     H       W           +W 
|-------------|-----------|---------|| 
|-11----10----|-----------|---------|| 
|-10----10----|-12--------|-(12)----|| 
|--8----10----|-12--------|-(12)----|| 
|--------8----|-10--------|-(10)----|| 
|-------------|-----------|---------|| 


   2nd & 4th Verses 
    $ 
    N.C. 
        |-3-|     |-3-|       |-3-|     |-3-|       |-3-|     |-3-| 
    E E E E E E E E E E   E E E E E E E E E E   E E E E E E E E E E  4x 
||----------------------|---------------------|----------------------|| 
||o---------------------|---------------------|---------------------o|| 
||----------------------|---------------------|----------------------|| 
||----------------------|---------------------|----------------------|| 
||o---------------------|---------------------|---------------------o|| 
||--3-3-6p3-3-3-3-6p3-3-|-3-3-6p3-3-3-3-6p3-3-|-3-3-6p3-3-3-3-6p3-3--|| 


  Bb5         F           Bb5   F       N.C. 
                                            |-3-|     |-3-| 
   W           W           H     H      E E E E E E E E E E 
|-----------|-----------|-------------|----------------------| 
|-11--------|-10--------|-11----10----|----------------------| 
|-10--------|-10--------|-10----10----|----------------------| 
|--8--------|-10--------|--8----10----|----------------------| 
|-----------|--8--------|--------8----|----------------------| 
|-----------|-----------|-------------|-3-3-6p3-3-3-3-6p3-3--| 


                        Bridge 
                           F5 
      |-3-|     |-3-| 
  E E E E E E E E E E    E  E E  E E  E E  E   E  E E  E E  E E  E 
|---------------------||---------------------|---------------------| 
|---------------------||---------------------|---------------------| 
|---------------------||---------------------|---------------------| 
|---------------------||---10---10---10---10-|---10---10---10---10-| 
|---------------------||----8----8----8----8-|----8----8----8----8-| 
|-3-3-6p3-3-3-3-6p3-3-||---------------------|---------------------| 


  E  E E  E E  E E  E   E  E E  E E  E E  E 
|---------------------|---------------------| 
|---------------------|---------------------| 
|---------------------|---------------------| 
|---10---10---10---10-|---10---10---10---10-| 
|----8----8----8----8-|----8----8----8----8-| 
|---------------------|---------------------| 


                                      To Coda 
  E  E E  E E  E E  E   E  E E  E E  E  +Q 
|---------------------|------------------------| 
|---------------------|------------------------| 
|---------------------|------------------------| 
|---10---10---10---10-|---10---10---10-(10)\---| 
|----8----8----8----8-|----8----8----8--(8)\---| 
|---------------------|------------------------| 


  D5                F5 
                              Gt 
  H.      +E  +E     W 
|-----------------|-----------|| 
|-----------------|-----------|| 
|-7-------(7)-(7)s|=10--------|| 
|-7-------(7)-(7)s|=10--------|| 
|-5-------(5)-(5)s|==8--------|| 
|-----------------|-----------|| 
| 
|                             Gt 
| W                  W 
|-----------------|-----------|| 
|-----------------|-----------|| 
|-----------------|-----------|| 
|-----------------|-----------|| 
|-----------------|-----------|| 
|-----------------|-----------|| 


 Guitar Solo 
  N.C. 
 r II 
    H          +H             Q   Q     Q   Q 
|---------------------------|-----------------------| 
|-/15---------(15)\---------|-----------------------| 
|-/15---------(15)\---------|-----------------------| 
|---------------------------|-----------------------| 
|---------------------------|-----------------------| 
|---------------------------|-----6s====5S==3-------| 
| 
|r I 
|       |-3-|         |-3-|       |-3-|     |-3-| 
|   E E E E E   E   E E E E   E E E E E E E E E E 
|---------------------------|-----------------------| 
|---------------------------|-----------------------| 
|---------------------------|-----------------------| 
|---------------------------|-----------------------| 
|---------------------------|-----------------------| 
|---3-3-6p3-3---3---3-6p3-3-|-3-3-6p3-3-3-3-6p3-3---| 


   W                      +H          E E Q        q    q      q    q 
|-----------------------|---------------x-------|-13---13-----13---13------| 
|-----------------------|---------------x-------|--------------------------| 
|-----------------------|-----------------------|--------------------------| 
|--0--------------------|-(0)-------------------|--------------------------| 
|-----------------------|-----------------------|--------------------------| 
|-(3)-------------------|-(3)-------------------|--------------------------| 
| 
|       |-3-|     |-3-|         |-3-|     |-3-|         |-3-|       |-3-| 
|  E  E E E E E E E E E    E  E E E E E E E E E    E E  E E E  E E  E E E 
|-----------------------|-----------------------|--------------------------| 
|-----------------------|-----------------------|--------------------------| 
|-----------------------|-----------------------|--------------------------| 
|-----------------------|-----------------------|--------------------------| 
|-----------------------|-----------------------|--------------------------| 
|--3--3-6p3-3-3-3-6p3-3-|--3--3-6p3-3-3-3-6p3-3-|--3-3--6p3-3--3-3--6p3-3--| 


   E  E  +H           E    E 
|-13-15-(15)\-------------10---| 
|------------------------------| 
|------------------------------| 
|------------------------------| 
|------------------------------| 
|------------------------------| 
| 
|         |--3--|     |--3---| 
|  E  E   E   E E E E E E    E 
|------------------------------| 
|------------------------------| 
|------------------------------| 
|------------------------------| 
|------------------------------| 
|--3--3---6p==3-3-3-3-6p3----3-| 


    q    q      q    q         Q    Q     Q   E    E 
|-/13---13-----13---13-----|-/15\-----------------10---| 
|--------------------------|---------------------------| 
|--------------------------|---------------------------| 
|--------------------------|---------------------------| 
|--------------------------|---------------------------| 
|--------------------------|---------------------------| 
| 
|        |-3-|       |-3-|          |-3-|     |--3---| 
|   E E  E E E  E E  E E E     E  E E E E E E E E    E 
|--------------------------|---------------------------| 
|--------------------------|---------------------------| 
|--------------------------|---------------------------| 
|--------------------------|---------------------------| 
|--------------------------|---------------------------| 
|---3-3--6p3-3--3-3--6p3-3-|---3--3-6p3-3-3-3-6p3----3-| 


                                         ~~~~~~~~~~~~~~~~ 
   q    q      q    q        E  E  +E    E    +Q     +E   E 
|-13---13-----13---13-----|-15-15-(15)--15---(15)---(15)------| 
|-------------------------|-----------------------------------| 
|-------------------------|-----------------------------------| 
|-------------------------|-----------------------------------| 
|-------------------------|-----------------------------------| 
|-------------------------|-----------------------------------| 
| 
|       |-3-|       |-3-|           |--3---|          |--3--| 
|  E E  E E E  E E  E E E    E  E   E E    E   E  E   E E   E 
|-------------------------|-----------------------------------| 
|-------------------------|-----------------------------------| 
|-------------------------|-----------------------------------| 
|-------------------------|-----------------------------------| 
|-------------------------|-----------------------------------| 
|--3-3--6p3-3--3-3--6p3-3-|--3--3---6p3----3---3--3---6p3---3-| 


                  |-3--| 
   Q    E    E    Q    H 
|-18\---------------------------| 
|-----------15---13---11\-------| 
|-------------------------------| 
|-------------------------------| 
|-------------------------------| 
|-------------------------------| 
| 
|       |--3---|          |-3-| 
|  E  E E E    E  E E     E E E 
|-------------------------------| 
|-------------------------------| 
|-------------------------------| 
|-------------------------------| 
|-------------------------------| 
|--3--3-6p3----3--3-3-----6p3-3-| 


  H         +E  +E   E    E 
|-----------------------------| 
|-8---------(8)-(8)\----------| 
|-----------------------------| 
|------------------------12---| 
|-----------------------------| 
|-----------------------------| 
| 
|     |-3-|          |--3---| 
| E E E E E  E   E   E E    E 
|-----------------------------| 
|-----------------------------| 
|-----------------------------| 
|-----------------------------| 
|-----------------------------| 
|-3-3-6p3-3--3---3---6p3----3-| 


    ~~~~ 
    H.              q        q   q      E E +Q 
|-------------------------|-------------------------| 
|-------------------------|-------------------------| 
|-\10---------------------|-------------------------| 
|------------------12-----|-10---8------------------| 
|-------------------------|------------10s8-(8)s====| 
|-------------------------|-------------------------| 
| 
|        |-3-|      |-3-|        |-3-|       |-3--| 
|   E  E E E E E E  E E E    E E E E E  E E  E  E E 
|-------------------------|-------------------------| 
|-------------------------|-------------------------| 
|-------------------------|-------------------------| 
|-------------------------|-------------------------| 
|-------------------------|-------------------------| 
|---3--3-6p3-3-3-3--6p3-3-|--3-3-6p3-3--3-3--6p=3-3-| 


                                                     Piano Solo 
                                                      N.C. 
   H          H            +H           H             W                     8x 
|-----------------------|-------------------------||------------------------|| 
|-----------------------|-------------------------||o----------------------o|| 
|------------12---------|-(12)/-------------------||------------------------|| 
|------------12---------|-(12)/-------------------||------------------------|| 
|-10---------12---------|-(12)/-------------------||o----------------------o|| 
|-----------------------|-------------------------||------------------------|| 
| 
|      |-3-|      |-3-|           |-3-|     |-3-|         |-3-|     |-3-| 
|  E E E E E  E E E E E     E   E E E E E E E E E     E E E E E E E E E E   8x 
|-----------------------|-------------------------||------------------------|| 
|-----------------------|-------------------------||o----------------------o|| 
|-----------------------|-------------------------||------------------------|| 
|-----------------------|-------------------------||------------------------|| 
|-----------------------|-------------------------||o----------------------o|| 
|--3-3-6p3-3--3-3-6p3-3-|---3---3-6p3-3-3-3-6p3-3-||--3-3-6p3-3-3-3-6p3-3---|| 


   Interlude                   3rd Verse 
    N.C.                        N.C. 
    Gtr I 
        |-3-|     |-3-|             |-3-|     |-3-|       |-3-|     |-3-| 
    E E E E E E E E E E  4x     E E E E E E E E E E   E E E E E E E E E E  6x 
||-----------------------||-||----------------------|----------------------|| 
||o---------------------o||-||o---------------------|---------------------o|| 
||-----------------------||-||----------------------|----------------------|| 
||-----------------------||-||----------------------|----------------------|| 
||o---------------------o||-||o---------------------|---------------------o|| 
||--3-3-6p3-3-3-3-6p3-3--||-||--3-3-6p3-3-3-3-6p3-3-|-3-3-6p3-3-3-3-6p3-3--|| 


  Bb5         F           Bb5   F       N.C. 
                                            |-3-|     |-3-| 
   W           W           H     H      E E E E E E E E E E 
|-----------|-----------|-------------|----------------------| 
|-11--------|-10--------|-11----10----|----------------------| 
|-10--------|-10--------|-10----10----|----------------------| 
|--8--------|-10--------|--8----10----|----------------------| 
|-----------|--8--------|--------8----|----------------------| 
|-----------|-----------|-------------|-3-3-6p3-3-3-3-6p3-3--| 


                                                      D.S. al Coda 
      |-3-|     |-3-|       |-3-|     |-3-|       |-3-|     |-3-| 
  E E E E E E E E E E   E E E E E E E E E E   E E E E E E E E E E 
|---------------------|---------------------|----------------------|| 
|---------------------|---------------------|----------------------|| 
|---------------------|---------------------|----------------------|| 
|---------------------|---------------------|----------------------|| 
|---------------------|---------------------|----------------------|| 
|-3-3-6p3-3-3-3-6p3-3-|-3-3-6p3-3-3-3-6p3-3-|-3-3-6p3-3-3-3-6p3-3--|| 


  & 
  D5                 F5 
  Gtr II 
  W                   H    E  E  Q 
|------------------|----------------|| 
|------------------|---------13s15--|| 
|------------------|----------------|| 
|------------------|----------------|| 
|------------------|----------------|| 
|------------------|----------------|| 
| 
| Gtr I 
| H.      +E  +E      W 
|------------------|----------------|| 
|------------------|----------------|| 
|-7-------(7)-(7)/-|-10-------------|| 
|-7-------(7)-(7)/-|-10-------------|| 
|-5-------(5)-(5)/-|--8-------------|| 
|------------------|----------------|| 


 Guitar Solo 2 
  N.C. 
    H          H           E  E  q      q    q 
|-/15\-------------------|-------------13---13-------| 
|------------------------|---14s12-------------------| 
|------------------------|---14s12-------------------| 
|------------------------|---------------------------| 
|------------------------|---------------------------| 
|------------------------|---------------------------| 
| 
|        |-3-|     |-3-|         |-3-|       |-3-| 
|   E  E E E E E E E E E   E  E  E E E  E E  E E E 
|------------------------|---------------------------| 
|------------------------|---------------------------| 
|------------------------|---------------------------| 
|------------------------|---------------------------| 
|------------------------|---------------------------| 
|---3--3-6p3-3-3-3-6p3-3-|-3--3--6p3-3--3-3--6p3-3---| 


   E  E  +H           E    E 
|-13-15-(15)\-------------------| 
|-------------------------------| 
|-------------------------------| 
|-------------------------------| 
|-------------------------10\---| 
|-------------------------10\---| 
| 
|         |--3--|     |---3---| 
|  E  E   E   E E E E E E     E 
|-------------------------------| 
|-------------------------------| 
|-------------------------------| 
|-------------------------------| 
|-------------------------------| 
|--3--3---6p==3-3-3-3-6p3-----3-| 


                                      ~~~~~~~~~ 
  H         Q   E    E      e  E E    E    +H 
|------------------------|------------------------------| 
|------------------------|-----------11---(11)----------| 
|------------------------|------------------------------| 
|------------------------|-10-12------------------------| 
|-------------------12---|------------------------------| 
|------------------------|------------------------------| 
| 
|     |-3-|     |--3---|         |--3---|        |-3-| 
| E E E E E E E E E    E    E  E E E    E   E  E E E E 
|------------------------|------------------------------| 
|------------------------|------------------------------| 
|------------------------|------------------------------| 
|------------------------|------------------------------| 
|------------------------|------------------------------| 
|-3-3-6p3-3-3-3-6p3----3-|--3--3-6p3----3---3--3-6p3-3--| 


   E  E  Q      E  E  E    E     E  E  +Q      +E   E  +Q 
|------------------------------|--------------------------------| 
|------------------------------|--------------------------------| 
|-12----10-----12s10------10---|---12-(12)----(12)s15-(15)\-----| 
|----12--------------12--------|--------------------------------| 
|------------------------------|--------------------------------| 
|------------------------------|--------------------------------| 
| 
|        |-3-|        |--3---|          |-3-|           |--3--| 
|  E  E  E E E  E  E  E E    E   E  E   E E E   E   E   E   E E 
|------------------------------|--------------------------------| 
|------------------------------|--------------------------------| 
|------------------------------|--------------------------------| 
|------------------------------|--------------------------------| 
|------------------------------|--------------------------------| 
|--3--3--6p3-3--3--3--6p3----3-|-3--3---6p3-3---3---3---6p==3-3-| 


   H          +E   +E   E    E 
|---------------------------13s==| 
|--------------------------------| 
|-12---------(12)-(12)/----------| 
|--------------------------------| 
|--------------------------------| 
|--------------------------------| 
| 
|      |-3-|            |--3---| 
|  E E E E E   E    E   E E    E 
|--------------------------------| 
|--------------------------------| 
|--------------------------------| 
|--------------------------------| 
|--------------------------------| 
|--3-3-6p3-3---3----3---6p3----3-| 


   q    q      q    q        E  E E    E    +Q     Q 
|-20---20-----------------|------------------------------| 
|-------------------------|------------------------------| 
|-------------10---10-----|-10-12-----12---(12)\---------| 
|-------------------------|------------------------------| 
|-------------------------|------------------------------| 
|-------------------------|------------------------------| 
| 
|       |-3-|       |-3-|         |--3---|         |-3-| 
|  E E  E E E  E E  E E E    E  E E E    E   E   E E E E 
|-------------------------|------------------------------| 
|-------------------------|------------------------------| 
|-------------------------|------------------------------| 
|-------------------------|------------------------------| 
|-------------------------|------------------------------| 
|--3-3--6p3-3--3-3--6p3-3-|--3--3-6p3----3---3---3-6p3-3-| 


  E   E Q       q   E     E 
|-----------------------------| 
|---/15-----------------/15---| 
|---/15-------/15-------/15---| 
|-----------------------------| 
|-----------------------------| 
|-----------------------------| 
| 
|       |-3-|       |---3---| 
| E   E E E E   E E E E     E 
|-----------------------------| 
|-----------------------------| 
|-----------------------------| 
|-----------------------------| 
|-----------------------------| 
|-3---3-6p3-3---3-3-6p3-----3-| 


  E   E E     E    +Q     Q 
|-------------------------------| 
|---/15-----/15---(15)\---------| 
|---/15-----/15---(15)\---------| 
|-------------------------------| 
|-------------------------------| 
|-------------------------------| 
| 
|       |---3---|         |-3-| 
| E   E E E     E   E   E E E E 
|-------------------------------| 
|-------------------------------| 
|-------------------------------| 
|-------------------------------| 
|-------------------------------| 
|-3---3-6p3-----3---3---3-6p3-3-| 


        ~~~~~~~~~~~~~~~~~~~~~~~ 
   q    H.                 +H          E  E  q 
|-15---13---------------|-(13)--------------15-----| 
|-----------------------|----------------15--------| 
|-----------------------|--------------------------| 
|-----------------------|--------------------------| 
|-----------------------|--------------------------| 
|-----------------------|--------------------------| 
| 
|       |-3-|     |-3-|          |-3-|       |-3-| 
|  E E  E E E E E E E E     E  E E E E E  E  E E E 
|-----------------------|--------------------------| 
|-----------------------|--------------------------| 
|-----------------------|--------------------------| 
|-----------------------|--------------------------| 
|-----------------------|--------------------------| 
|--3-3--6p3-3-3-3-6p3-3-|---3--3-6p3-3-3--3--6p3-3-| 


        ~~~~~~~~~~~~~~~~~~~~~~~ 
   q    H.                 +Q     Q     H           E   E Q      q    q 
|-15---13---------------|-(13)---13\--------------|---/15-------13---10------| 
|-----------------------|-------------------------|--------------------------| 
|-----------------------|-------------------------|--------------------------| 
|-----------------------|-------------------------|--------------------------| 
|-----------------------|-------------------------|--------------------------| 
|-----------------------|-------------------------|--------------------------| 
| 
|       |-3-|     |-3-|           |-3-|     |-3-|         |-3-|       |-3-| 
|  E E  E E E E E E E E     E  E  E E E E E E E E   E   E E E E  E E  E E E 
|-----------------------|-------------------------|--------------------------| 
|-----------------------|-------------------------|--------------------------| 
|-----------------------|-------------------------|--------------------------| 
|-----------------------|-------------------------|--------------------------| 
|-----------------------|-------------------------|--------------------------| 
|--3-3--6p3-3-3-3-6p3-3-|---3--3--6p3-3-3-3-6p3-3-|-3---3-6p3-3--3-3--6p3-3--| 


                           ~~~~~ 
    H          E  E  E     E 
|------------------------------| 
|-/13---------11s10s11---------| 
|------------------------/12---| 
|------------------------------| 
|------------------------------| 
|------------------------------| 
| 
|       |-3-|        |---3---| 
|   E E E E E  E  E  E E     E 
|------------------------------| 
|------------------------------| 
|------------------------------| 
|------------------------------| 
|------------------------------| 
|---3-3-6p3-3--3--3--6p3-----3-| 


 ~~~~~~ 
   +H.             E    E      +H           H 
|---------------------------|-------------------------| 
|----------------------12---|-(12)\-------------------| 
|-(12)-----------------12---|-(12)\-------------------| 
|---------------------------|-------------------------| 
|---------------------------|-------------------------| 
|---------------------------|-------------------------| 
| 
|        |-3-|     |--3---|           |-3-|     |-3-| 
|   E  E E E E E E E E    E     E   E E E E E E E E E 
|---------------------------|-------------------------| 
|---------------------------|-------------------------| 
|---------------------------|-------------------------| 
|---------------------------|-------------------------| 
|---------------------------|-------------------------| 
|---3--3-6p3-3-3-3-6p3----3-|---3---3-6p3-3-3-3-6p3-3-| 


  E  E  q      q    q        E  E Q     H           E  E  q      q    q 
|-------------------------|-----------------------|---15s13-----13---13------| 
|-------------10---10-----|-10s12-----------------|---15s13-----13---13------| 
|---12s10-----10---10-----|-10s12-----------------|--------------------------| 
|-------------------------|-----------------------|--------------------------| 
|-------------------------|-----------------------|--------------------------| 
|-------------------------|-----------------------|--------------------------| 
| 
|       |-3-|       |-3-|         |-3-|     |-3-|         |-3-|       |-3-| 
| E  E  E E E  E E  E E E    E  E E E E E E E E E   E  E  E E E  E E  E E E 
|-------------------------|-----------------------|--------------------------| 
|-------------------------|-----------------------|--------------------------| 
|-------------------------|-----------------------|--------------------------| 
|-------------------------|-----------------------|--------------------------| 
|-------------------------|-----------------------|--------------------------| 
|-3--3--6p3-3--3-3--6p3-3-|--3--3-6p3-3-3-3-6p3-3-|-3--3--6p3-3--3-3--6p3-3--| 


   E  E  Q     H           E  E  q      q    q 
|-13S15\-----------------|-------------------------| 
|-13S15\-----------------|---12s10-----10---10-----| 
|------------------------|---12s10-----10---10-----| 
|------------------------|-------------------------| 
|------------------------|-------------------------| 
|------------------------|-------------------------| 
| 
|        |-3-|     |-3-|         |-3-|       |-3-| 
|  E  E  E E E E E E E E   E  E  E E E  E E  E E E 
|------------------------|-------------------------| 
|------------------------|-------------------------| 
|------------------------|-------------------------| 
|------------------------|-------------------------| 
|------------------------|-------------------------| 
|--3--3--6p3-3-3-3-6p3-3-|-3--3--6p3-3--3-3--6p3-3-| 


   E  E E    E    +H 
|-----------------------------| 
|-10s12-----15---(15)S========| 
|-10s12-----15---(15)S========| 
|-----------------------------| 
|-----------------------------| 
|-----------------------------| 
| 
|       |--3---|        |-3-| 
|  E  E E E    E   E  E E E E 
|-----------------------------| 
|-----------------------------| 
|-----------------------------| 
|-----------------------------| 
|-----------------------------| 
|--3--3-6p3----3---3--3-6p3-3-| 


      ~~~~~~~~~~~~~~~~~~~~~~~~~~~ 
   E  E  +H.                 +H.             Q 
|-------------------------|------------------------| 
|-10S12-(12)--------------|-(12)-------------------| 
|-10S12-(12)--------------|-(12)-------------------| 
|-------------------------|------------------------| 
|-------------------------|------------------------| 
|-------------------------|------------------------| 
| 
|         |-3-|     |-3-|          |-3-|     |-3-| 
|  E  E   E E E E E E E E     E  E E E E E E E E E 
|-------------------------|------------------------| 
|-------------------------|------------------------| 
|-------------------------|------------------------| 
|-------------------------|------------------------| 
|-------------------------|------------------------| 
|--3--3---6p3-3-3-3-6p3-3-|---3--3-6p3-3-3-3-6p3-3-| 


  E  E q      q    E    E 
|----------------------------| 
|---12s9-----12\-------12\---| 
|---12s9-----12\-------12\---| 
|----------------------------| 
|----------------------------| 
|----------------------------| 
| 
|      |-3-|       |---3---| 
| E  E E E E  E  E E E     E 
|----------------------------| 
|----------------------------| 
|----------------------------| 
|----------------------------| 
|----------------------------| 
|-3--3-6p3-3--3--3-6p3-----3-| 


  W                     E  E Q      q   E    E      W 
|---------------------|---13-------13-------13\---|---------------------| 
|---------------------|---11-------11-------------|---------------------| 
|---------------------|---------------------------|---------------------| 
|---------------------|---------------------------|---------------------| 
|---------------------|---------------------------|---------------------| 
|---------------------|---------------------------|---------------------| 
| 
|     |-3-|     |-3-|        |-3-|      |---3---|       |-3-|     |-3-| 
| E E E E E E E E E E   E  E E E E  E E E E     E   E E E E E E E E E E 
|---------------------|---------------------------|---------------------| 
|---------------------|---------------------------|---------------------| 
|---------------------|---------------------------|---------------------| 
|---------------------|---------------------------|---------------------| 
|---------------------|---------------------------|---------------------| 
|-3-3-6p3-3-3-3-6p3-3-|-3--3-6p3-3--3-3-6p3-----3-|-3-3-6p3-3-3-3-6p3-3-| 


  E   E Q       q   E     E 
|-----------------------------| 
|---/15-------/15-------/15---| 
|---/15-------/15-------/15---| 
|-----------------------------| 
|-----------------------------| 
|-----------------------------| 
| 
|       |-3-|       |---3---| 
| E   E E E E   E E E E     E 
|-----------------------------| 
|-----------------------------| 
|-----------------------------| 
|-----------------------------| 
|-----------------------------| 
|-3---3-6p3-3---3-3-6p3-----3-| 


  W                     E   E Q       q   E     E 
|---------------------|-----------------------------| 
|---------------------|---/15-------/15-------/15---| 
|---------------------|---/15-------/15-------/15---| 
|---------------------|-----------------------------| 
|---------------------|-----------------------------| 
|---------------------|-----------------------------| 
| 
|     |-3-|     |-3-|         |-3-|       |---3---| 
| E E E E E E E E E E   E   E E E E   E E E E     E 
|---------------------|-----------------------------| 
|---------------------|-----------------------------| 
|---------------------|-----------------------------| 
|---------------------|-----------------------------| 
|---------------------|-----------------------------| 
|-3-3-6p3-3-3-3-6p3-3-|-3---3-6p3-3---3-3-6p3-----3-| 


                             Outro 
                              N.C. 
                              |--3--| |-3-| |--3--| |-3-| 
   +H.              Q         E E   E Q   E E E   E E E E 
|-------------------------||------------------------------| 
|-(15)\-------------------||o-----------------------------| 
|-(15)\-------------------||------------------------------| 
|-------------------------||------------------------------| 
|-------------------------||o-----------------------------| 
|-------------------------||--3-3---3-3---3-6p3---3-8p3-3-| 
| 
|         |-3-|     |-3-|             |-3-|         |-3-| 
|   E   E E E E E E E E E     E   E   E E E E   E   E E E 
|-------------------------||------------------------------| 
|-------------------------||o-----------------------------| 
|-------------------------||------------------------------| 
|-------------------------||------------------------------| 
|-------------------------||o-----------------------------| 
|---3---3-6p3-3-3-3-6p3-3-||--3---3---6p3-3-3---3---6p3-3-| 


  |--3--| |-3-| |--3--| |-3-| 
  E E   E E E E E E   E E E E 
|------------------------------| 
|------------------------------| 
|------------------------------| 
|------------------------------| 
|------------------------------| 
|-9p3---3-8p3-3-6p3---3-5p3-3--| 
| 
|         |-3-|         |-3-| 
| E   E   E E E E   E   E E E 
|------------------------------| 
|------------------------------| 
|------------------------------| 
|------------------------------| 
|------------------------------| 
|-3---3---6p3-3-3---3---6p3-3--| 


  |--3--| |-3-| |--3--| |-3-| 
  E E   E Q   E E E   E E E E 
|-----------------------------| 
|-----------------------------| 
|-----------------------------| 
|-----------------------------| 
|-----------------------------| 
|-3-3---3-3---3-6p3---3-8p3-3-| 
| 
|         |-3-|         |-3-| 
| E   E   E E E E   E   E E E 
|-----------------------------| 
|-----------------------------| 
|-----------------------------| 
|-----------------------------| 
|-----------------------------| 
|-3---3---6p3-3-3---3---6p3-3-| 


  |--3--| |-3-| |--3--| |-3-|             |-3-|     |-3-| 
  E E   E E E E E E   E E E E         E E E E E E E E E E 
|------------------------------||-||----------------------| 
|-----------------------------o||-||o---------------------| 
|------------------------------||-||----------------------| 
|------------------------------||-||----------------------| 
|-----------------------------o||-||o---------------------| 
|-9p3---3-8p3-3-6p3---3-8p3-3--||-||--3-3-6p3-3-3-3-6p3-3-| 
| 
|         |-3-|         |-3-|             |-3-|     |-3-| 
| E   E   E E E E   E   E E E         E E E E E E E E E E 
|------------------------------||-||----------------------| 
|-----------------------------o||-||o---------------------| 
|------------------------------||-||----------------------| 
|------------------------------||-||----------------------| 
|-----------------------------o||-||o---------------------| 
|-3---3---6p3-3-3---3---6p3-3--||-||--3-3-6p3-3-3-3-6p3-3-| 


      |-3-|     |-3-| 
  E E E E E E E E E E     E  E E    E   E  E E    E      W 
|----------------------||---/6-----/6-----/6-----/6\---|---------------------| 
|---------------------o||---/6-----/6-----/6-----/6\---|---------------------| 
|----------------------||------------------------------|---------------------| 
|----------------------||------------------------------|---------------------| 
|---------------------o||------------------------------|---------------------| 
|-3-3-6p3-3-3-3-6p3-3--||------------------------------|---------------------| 
| 
|     |-3-|     |-3-|          |--3---|      |---3---|       |-3-|     |-3-| 
| E E E E E E E E E E     E  E E E    E E  E E E     E   E E E E E E E E E E 
|----------------------||------------------------------|---------------------| 
|---------------------o||------------------------------|---------------------| 
|----------------------||------------------------------|---------------------| 
|----------------------||------------------------------|---------------------| 
|---------------------o||------------------------------|---------------------| 
|-3-3-6p3-3-3-3-6p3-3--||-3--3-6p3----3-3--3-6p3-----3-|-3-3-6p3-3-3-3-6p3-3-| 


  E  E E    E   E  E E    E      W 
|---/6-----/6-----/6-----/6\---|---------------------*| 
|---/6-----/6-----/6-----/6\---|---------------------*| 
|------------------------------|---------------------*| 
|------------------------------|---------------------*| 
|------------------------------|---------------------*| 
|------------------------------|---------------------*| 
| 
|      |--3---|      |---3---|       |-3-|     |-3-| 
| E  E E E    E E  E E E     E   E E E E E E E E E E 
|------------------------------|---------------------*| 
|------------------------------|---------------------*| 
|------------------------------|---------------------*| 
|------------------------------|---------------------*| 
|------------------------------|---------------------*| 
|-3--3-6p3----3-3--3-6p3-----3-|-3-3-6p3-3-3-3-6p3-3-*| 


Duration Legend 
--------------- 
W - whole; H - half; Q - quarter; E - 8th; S - 16th; T - 32nd; X - 64th; a - acciaccatura 
+ - note tied to previous; . - note dotted; .. - note double dotted 
Uncapitalized letters represent notes that are staccato (1/2 duration) 
Irregular groupings are notated above the duration line 
Duration letters will always appear directly above the note/fret number it represents the 
duration for.  Duration letters with no fret number below them represent rests.  Multi- 
bar rests are notated in the form Wxn, where n is the number of bars to rest for.  Low 
melody durations appear below the staff 

Tablature Legend 
---------------- 
 h   - hammer-on 
 p   - pull-off 
 b   - bend 
 pb  - pre-bend 
 r   - bend release (if no number after the r, then release immediately) 
 /\  - slide into or out of (from/to 'nowhere') 
 s   - legato slide 
 S   - shift slide 
  - natural harmonic 
n  - artificial harmonic 
n(n) - tapped harmonic 
 ~   - vibrato 
 tr  - trill 
 T   - tap 
 TP  - trem. picking 
 PM  - palm muting 
\n/  - tremolo bar dip; n = amount to dip 
 \n  - tremolo bar down 
 n/  - tremolo bar up 
/n\  - tremolo bar inverted dip 
 =   - hold bend; also acts as connecting device for hammers/pulls 
 <>  - volume swell (louder/softer) 
 x   - on rhythm slash represents muted slash 
 o   - on rhythm slash represents single note slash 

Misc Legend 
----------- 
 |  - bar 
||  - double bar 
||o - repeat start 
o|| - repeat end 
*|  - double bar (ending) 
 :  - bar (freetime) 
 $  - Segno 
 &  - Coda 
Tempo markers -  = BPM(8/16=s8/s16), where s8 = swing 8ths, s16 = swing 16ths 

roll up this ad to continue

share this page

See Also: