E-Chords
Rollerball

Lifetime(Tabs)

Rollerball

roll up this ad to continue

^ = bend 
P = pull off 
h = hammer 
 
 
bit at the start: 
e-------------------------------------------------- 
b-------------------------------------------------- 
g---x-x-x-x-x-3-3-3-------------------------------- 
d---x-x-x-x-x-3-3-3-------------------------------- 
a---x-x-x-x-x-1-1-1-------------------------------- 
E-------------------------------------------------- 
 
 
then straight into this: 
e-------------------------------------------------- 
b-------------------------------------------------- 
g---5-5-----5-5--8-8---10^-8----------------------- 
d---5-5-----5-5--8-8---------10-------------------- 
a---3-3-----3-3--6-6------------------------------- 
E-------------------------------------------------- 
 
e-------------------------------------------------- 
b-------------------------------------------------- 
g---3-3-----8-8--5-5---0-h1-3-1-3------------------ 
d---3-3-----8-8--5-5---0-h1-3-1-3------------------ 
a---1-1-----6-6--3-3------------------------------- 
E-------------------------------------------------- 
 
e-------------------------------------------------- 
b-------------------------------------------------- 
g---5-5----------8-8---5-p3-p0-3-p0-3-------------- 
d---5-5-----6-6--8-8----------------3-------------- 
a---3-3-----6-6--6-6------------------------------- 
E-----------4-4------------------------------------ 
 
e-------------------------------------------------- 
b-------------------------------------------------- 
g---3-3-----8-8--5-5---3-p1-1--3-p1-3-------------- 
d---3-3-----8-8--5-5---3-p1-1--3-p1-3-------------- 
a---1-1-----6-6--3-3------------------------------- 
E-------------------------------------------------- 
 
The verse that follows is the same as above just without the extra bits. 
ie. just play the power chords. 
 
 
This bit is about 0:54 into the song. 
Kind of in the background. 
e-------------------------------------------------- 
b-------------------------------------------------- 
g---10-10-10-10-9-----7-8-7-8-7-------------------- 
d---10-10-10-10-10----8-8-8-8-8-------------------- 
a-------------------------------------------------- 
E-------------------------------------------------- 
 
 
And this starts about 2:05 into the song. 
e-------------------------------------------------- 
b-------------------------------------------------- 
g---5--5-8-10-10^----3--6--3--6-------------------- 
d---5--5-8-10-10^----3--6--3--6-------------------- 
a---3--3-6-8--8-^--1-1--4--1--4-------------------- 
E-------------------------------------------------- 
 
This bit is played near the end. 
e-------------------------------------------------- 
b-------------------------------------------------- 
g---5--5-5-5-5-5-5--------------------------------- 
d---5--5-5-5-5-5-5--6--3--8--5--------------------- 
a---3--3-3-3-3-3-3--6--3--8--5--------------------- 
E-------------------4--1--6--3--------------------- 
 
 
 
Listen to the song to figure out where everything goes. 
 
Email me if I've done something wrong. 
[email protected] 
 
 
share this page

See Also: