E-Chords
Rollerball

Classical Stimuli(Tabs)

Rollerball

roll up this ad to continue

 
         rythmn fig. 1(intro) 
	e-----------------------------------------| 
	b-----------------------------------------| 
	g---------------------------------5--5/7--| 
	D---------------------------------5--5/7--|repeat x4 
	A-----------3-o--------------3-o--3--3/5--| 
	E---o--oh3h5---------o--oh3h5------------ | 
 
 
	 fig. 2 
	e------------------------------------------------------------------| 
	b------------------------------------------------------------------| 
	g------------------------------------------------------------------| 
	D------------------------------------------------------------------|repeat x2 
	A---5p3p0------5p3p0-----------3---5p3p0------5p3p0----------------| 
	E--------5-5--5-----5-5--50h3h5---------5-5--5-----5-5--50h3h53----| 
 
 
	 fig. 3 
	e----------------------------------------------| 
	b----------------------------------------------| 
	g------------(5)-------------------------------| 
	D------------(5)-------------------(8)---------|repeat x 2 
	A-------------3--------------------(8)---------| 
	E--0h3h5-55535-5550h3h55-0h3h5-5553565550h3h5--| 
 
 
        verse 1: continue fig. 3 
	You are clued onto every dream....now float around me 
 
	verse 2: fig. 2 
	Call all the spirits...peace with you planet & time. 
	 
	fig. 3 again for a few bars, then 
        Got,gotta get through it water to wine... 
	 
	(G power chord)                    (A power chord) 
 
 
 
 
 
 
	Well, that's about it. If you listen to the track you should be able to nut 
         it out. Please feel free to contact me if you have any dramas. I'll hopefully 
        have some more 'ball tabs on the way 
 
 
 
share this page

See Also: