E-Chords
Rod Wave

Tombstone(Tabs)

Rod Wave

roll up this ad to continue

Watch the video lesson
Key: Ab
INTRO  

Fm - C#sus2 - Ab - Fm - Ab 

----------------------------------8-6-4----------------------- 
-9-------4---------------------9------------------------------ 
---------------5-------------------------5-------------------- 
----10------5-----6-8-10-8------------------------------------ 
-8-------4---------------------8------------------------------ 
---------------4-------------------------4-------------------- 

2x 

Fm - C#sus2 - Ab  

-------------------------------------------------------------- 
-9---4-------------------------------------------------------- 
---------5---------------------------------------------------- 
-------------------------------------------------------------- 
-8---4-------------------------------------------------------- 
---------4---------------------------------------------------- 


VERSE/Chorus  


Fm - C#sus2 - Ab - Fm - Ab 

----------------------------------8-6-4----------------------- 
-9-------4---------------------9------------------------------ 
---------------5-------------------------5-------------------- 
----10------5-----6-8-10-8------------------------------------ 
-8-------4---------------------8------------------------------ 
---------------4-------------------------4-------------------- 

2x 

Fm - C#sus2 - Ab  

-------------------------------------------------------------- 
-9---4-------------------------------------------------------- 
---------5---------------------------------------------------- 
-------------------------------------------------------------- 
-8---4-------------------------------------------------------- 
---------4---------------------------------------------------- 
share this page

See Also: