E-Chords
Robin Trower

Wont Even Think About You(Tabs)

Robin Trower

7 secs                                                    repeat x6          
E |--1----||----------------------------|----------------------------|| 
B |--1----||----------------------------|----------------------------|| 
G |--0----||--------5-----------3-------|--------5-----------3-------|| 
D |--0----||----------------------------|----------------------------|| 
A |-------||-----5-----------3----------|-----5-----------3----------|| 
E |--3----||--3----------1--------------|--3--------1----------------|| 


Pre Chorus (25 secs) 
                                                                  
E |-------|| 
B |--6----|| 
G |--7----|| 
D |--8----|| 
A |-------|| 
E |--8----|| 

          
Fill 1                                                  
E |----------------------------| 
B |----------------------------| 
G |-----------------7--9--7----| 
D |--8--8s-7h-5----------------| 
A |--------------8-------------| 
E |----------------------------| 

           
E |-------|| 
B |--6----|| 
G |--7----|| 
D |--8----|| 
A |-------|| 
E |--8----|| 

 Fill 2                                                  ^           
E |----------------------------|-------------------| 
B |----------------------------|-------------------| 
G |----------------------------|-----2-------------| 
D |--------5--3----------------|--5--------3-------| 
A |-----5-----------------5----|-------------------| 
E |--3-----------------3-------|-------------------| 


            
E |-------|| 
B |--6----|| 
G |--7----|| 
D |--8----|| 
A |-------|| 
E |--8----|| 
  
Fill 3                           45 secs                               
E |----------------------------||-------| 
B |----------------------------||--8----| 
G |----------------------------||--9----| 
D |--8--8s-7h-5-----5s-7s-10---||--10---| 
A |--------------8-------------||-------| 
E |----------------------------||--10---| 

s- slide 
h-hammer on/ pull off 


************************************ 

s- slide 
h-hammer on/ pull off 

************************************ 

roll up this ad to continue

share this page

See Also: