E-Chords
Robin Trower

Victims Of The Fury(Tabs)

Robin Trower

Key: Dbm
Intro 

        Dbm11                  Abm11                   F#m11  
e|---------------12---------------------7---------------------5-----------| 
B|------------12----------------------7---------------------5-------------| 
G|---------11-----------------------6---------------------4---------------| 
D|------11------------------------6---------------------4-----------------|  x2 
A|---11-------------------------6---------------------4-------------------| 
E|-9--------------------------4---------------------2---------------------|  

(intro picking) 
    
e|-----------0-----------------0-----------------0-----------------------| 
B|-------------0-----------------0-----------------0---------------------| 
G|---------------6-----------------6-----------------6-------------------| 
D|-------6-----------------6-----------------6-------------6---4-6-------| 
A|---4-----------------4-----------------4---------------4---7-----7-----| 
E|-----------------------------------------------------------------------| 


Verse  

(repeat figure) 
  
   
e|----------0---------------------| 
B|----------0---------------------| 
G|------------6-------------------| 
D|------6-------------6---4-6-----| 
A|--4---------------4---7-----7---| 
E|--------------------------------| 
   

Chorus 
   
e|-------------------0---------------0--------------0---------------0------| 
B|---------------------0---------------0--------------0---------------0----| 
G|-4-4-4-4---------------6---------------4--------------4---------------6--| 
D|-4-4-4-4-------6---------------4---------------4--------------6---------6| 
A|-2-2-2-2---4---------------2---------------2--------------4--------------| 
E|-------------------------------------------------------------------------| 


e|---------0---------------0----------------------------------| 
B|-----------0---------------0--------------------------------| 
G|-------------6---------------4---4--------------11b--9------| 
D|-----6---------------4-----------4-----11\9-----11b--9---6--| 
A|-4---------------2---------------2------9\7--------------4--| 
E|------------------------------------------------------------| 

(the last part is open to interpretation, in 1980 Robin was playing it around the 10th fret. 
In recent (2006+) videos, Robin is playing it like this) 

e|------------------------| 
B|------------------------| 
G|-6---4------------------| 
D|-4---2---4-b6-2---6-----| 
A|------------------4-----| 
E|------------------------| 


************************************ 
| b   Bend 
| /   Slide 
************************************ 

roll up this ad to continue

share this page

See Also: