E-Chords
Robin Trower

Take What You Need(Tabs)

Robin Trower

Key: D#

Tuning: Down 1/2 Step 
Use the Thumb on D# -3- 


d#|-------------------------------------------------------------------| 
A#|-------------------4-5------7--4-5----------3----------------------| 
F#|-------------2-----4-5---7--7--4-5---7----0------------------------| 
C#|------------2--5---4-5--7---7--4-5--7---2--------------------------| 
G#|-2-3-3/5---2-----------0-----------0-------------------------------| 
D#|----------3--------------------------------------------------------| 


d#|-------------------------------------------------------------------| 
A#|----------------------3-------3--------2-------2-------3-------3---| 
F#|--------------------0---0---0---0----0---0---0---0---0---0---0---0-| 
C#|-----4-------4----2-------2--------2-------2-------2-------2-------| 
G#|---5---5---5---5---------------------------------------------------| 
D#|-7-------7---------------------------------------------------------| 

d#|-----------------------------------2-------------------------------| 
A#|----------------------3-------3----2-------------------------------| 
F#|--------------------0---0---0---0--4-------------------------------| 
C#|-----4-------4----2-------2--------4-------------------------------| 
G#|---5---5---5---5-------------------2-------------------------------| 
D#|-7-------7---------------------------------------------------------| 


d#|-----------------------------------------2-------------------------| 
A#|-----------------3---------------3---8---2-------------------------| 
F#|-----2--------2--2-----2-------2-2---7---4-------------------------| 
C#|----2--5-----2--------2--5----2------5---4-------------------------| 
G#|---2--------2--------2-------2-------x---2-------------------------| 
D#|-3--------3--------3-------3---------7-----------------------------| 


d#|-------------------------------------------------------------------| 
A#|-------------------------------------------------------------------| 
F#|-----------4-5-7/9\7---------------2-------------------------------| 
C#|-----------x-x-x-x-x--------------2--5-----------------------------| 
G#|-2-3-3/5---2-3-5/7\5--2-3-3/5----2---------------------------------| 
D#|-------------------------------3-----------------------------------| 





************************************ 

| /   slide up 
| \   slide down 
| x   Mute note 


************************************ 

roll up this ad to continue

share this page

See Also: