E-Chords
Rob Halford

Silent Screams(Tabs)

Rob Halford

Intro: Dedilhado 1 
 
D#|------------------------------------------------------------------------ 
A#|------------------------------------------------------------------------ 
F#|--------------7----------------------7-----------------------7------------- 
C#|--------7-------7----7--------7-------7-----7--------7-------7----7-------------- 
G#|-----5----5-------5--------5----5--------5--------5----5-------5----------------- 
C#|--0----------------------0-----------------------0----------------------0--- 
 
 
D#|------------------------------------------------------------------------ 
A#|------------------------------------------------------------------------ 
F#|--------------7----------------------7-----------------------7------------- 
C#|--------7-------7----7--------7-------7-----7--------7-------7----7-------------- 
G#|-----5----5-------5--------5----5--------5--------5----5-------5----------------- 
C#|--0----------------------0-----------------------0----------------------0--- 
 
Logo em seguida entra Halford cantado a 1º estrofe (muda uma nota no dedilhado). 
?Look at me I?m chansing...? 
Dedilhado 2: 
 
	C#m					  A 
D#|------------------------------------------------------------------------ 
A#|--------------6-----------------------6------------------------3----------------------3-- 
F#|-----------------7------------------------7--------------3--------3-------------3---------3- 
C#|--------7----------7-----------7-----------7---------3----3--------3-------3----3----------3- 
G#|-----5----5-----------5----5-----5-----------5---1--------------------1-1---------------------1 
C#|--0-----------------------0-----------------------------------------------                         2x 
 
?That Lies are gone...? 
       F#m                              Em                         C#m 
D#|------------------------------------------------------------------------ 
A#|------------------------------------------------------------------------ 
F#|--------------------------------------------------------------7---------- 
C#|-------5------5-----5--------3-------3------3--------7--------7------7----------- 
G#|----5-------5-------------3-------3----------------5----5---------5------------ 
C#|--5-------5-----5------3-------3-------3-------0--------------------------0----- 
 
 
 
D#|------------------------------------------------------------------------ 
A#|------------------------------------------------------------------------ 
F#|------------7------------------------------------------------------------ 
C#|-----7---------7-----7---------5------5-----5------3-----3----3-------------- 
G#|--5----5----------5---------5-------5------------3-----3----------------------- 
C#|---------------------------5-------5------5-----3-----3-----3----------------- 
 
 
D#|------------------------------------------------------------------------ 
A#|------------------------------------------------------------------------ 
F#|--------------7-------------------------------------------------------- 
C#|--------7--------7-----7------------------------------------------------- 
G#|-----5----5---------5----5-------------------------------------------------- 
C#|--0---------------------------------------------------------------------- 
 
2º Estrofe segue o Dedilhado 2 
 
Riff 1- Essa parte entra a distorção. Refrão 
??ou?ll never know...? 
D#|------------------------------------------------------------------------ 
A#|------------------------------------------------------------------------ 
F#|----------------3----------------3----------------3------------------------ 
C#|--0--3--5--0--3--0--3--5--0--3--0--3--5--0--3----------------------------------------- 
G#|--0--3--5--0--1--0--3--5--0--1--0--3--5--0--1----------------------------------------- 
C#|--0--3--5--0------0--3--5--0-----0--3--5--0----------------------------------------- 
 
D#|------------------------------------------------------------------------ 
A#|------------------------------------------------------------------------ 
F#|------------------------------------------------------------------------- 
C#|--0--3--5--3--3--0--3--5--0------------------------------------------------------ 
G#|--0--3--5--3--3--0--3--5--0------------------------------------------------------ 
C#|--0--3--5--3--3--0--3--5--0------------------------------------------------------      2x esse Riff  
 
3º Estrofe ? Dedilhado 2 
 
Riff 2 (com distorção) 
?Killing Pain...? 
D#|------------------------------------------------------------------------ 
A#|------------------------------------------------------------------------ 
F#|------------------------------------------------------------------------ 
C#|--5---3-3--0--3-5-0------------------------------------------------------------ 
G#|--5---3-3--0--3-5-0------------------------------------------------------------ 
C#|--5---3-3--0--3-5-0------------------------------------------------------------ 
 
 
 
 
 
 
Riff 3 ? Essa parte se faz abafando.  
?Close my eyes a million faces...? 
D#|------------------------------------------------------------------------ 
A#|------------------------------------------------------------------------ 
F#|------------------------------------------------------------------------ 
C#|--0-0---0-0---0-0---0-0--0-0--0-0--0-0--0-0--0-0--0-0--------- 
G#|--0-0---0-0---0-0---0-0--0-0--0-0--0-0--0-0--0-0--0-0--------- 
C#|--0-0---0-0---0-0---0-0--0-0--0-0--0-0--0-0--0-0--0-0--------- 
 
Vai fazendo isso até ?Soul with all mankind...?  
 
Riff 2 ? ?Killing Pain? 
Refrão ? Riff 1  
 
Riff 4 ? Essa parte a música dá uma acelerada... se faz abafando só solta nos ?Power acordes?. 
1º Parte 
D#|------------------------------------------------------------------------ 
A#|------------------------------------------------------------------------ 
F#|--7--------------7-7-------------7-7--------------7-7-5------------- 
C#|--7--------------7-7-------------7-7--------------7-7-5------------- 
G#|--5-5-5-5-5-5-5-5-5-5-5-5-5-5-5-5-5-5-5-5-5-5-3------------- 
C#|------------------------------------------------------------------------                         6x 
 
2º Parte 
D#|------------------------------------------------------------------------ 
A#|------------------------------------------------------------------------ 
F#|------------------------------------------------------------------------ 
C#|---3-3-3-3--5--3-3-3-3--5--3-3-3-3--5--3-3-3-3--5-5-5-5------ 
G#|---3-3-3-3--5--3-3-3-3--5--3-3-3-3--5--3-3-3-3--5-5-5-5------- 
C#|---3-3-3-3--5--3-3-3-3--5--3-3-3-3--5--3-3-3-3--5-5-5-5------- 
 
D#|------------------------------------------------------------------------ 
A#|------------------------------------------------------------------------ 
F#|---------------7-7-------------------------------------------------------- 
C#|---------------7-7--------------3-3-3-3-5-3-3-3-3-5-3-3-3-3-5--3-3-3-3-5-5-5-5-- 
G#|--5-5-5-5-5-5-5-5-5-5-5-5--3-3-3-3-5-3-3-3-3-5-3-3-3-3-5--3-3-3-3-5-5-5-5----- 
C#|---------------------------------3-3-3-3-5-3-3-3-3-5-3-3-3-3-5--3-3-3-3-5-5-5-5----                           
 
Repete a 1º parte do Riff 4 
Depois a 2º parte 
Repete a 1º parte do Riff 4 
Depois a 2º parte 
E por fim repete a 1º parte do Riff 4 
E entra em outra estrofe que é mesma vocalização do refrão, portanto use o Riff 1 
A música encerra com o dedilhado da introdução, toda vida até sumir... 
Fim!!! 

roll up this ad to continue

share this page

See Also: