E-Chords
Rise in Some End

Marionete(Tabs)

Rise in Some End

roll up this ad to continue

Key: A
e.-------5--------5-------5--------5|----------10------------10------------10------------10--| 
B.-------5--------5-------5--------5|----------12------------12------------12------------12--| 
G.-------5--------5-------5--------5|----------10------------10------------10------------10--| 
D.-------5--------5-------5--------5|-12-12-12-12---12-12-12-12---12-12-12-12---12-12-12-12--| 
A.-7-7-7-7--7-7-7-7-7-7-7-7--7-7-7-7|-10-10-10-10---10-10-10-10---10-10-10-10---10-10-10-10--| 
E.-5-5-5-5--5-5-5-5-5-5-5-5--5-5-5-5|--------------------------------------------------------| 

e.----------08------------08------------08------------08--| 
B.----------10------------10------------10------------10--| 
G.----------08------------08------------08------------08--| 
D.-10-10-10-10---10-10-10-10---10-10-10-10---10-10-10-10--| 
A.-08-08-08-08---08-08-08-08---08-08-08-08---08-08-08-08--| 
E.--------------------------------------------------------| 

e.-------7--------7-------7--------7| 
B.-------9--------9-------9--------9| 
G.-------7--------7-------7--------7| 
D.-9-9-9-9--9-9-9-9-9-9-9-9--9-9-9-9| 
A.-7-7-7-7--7-7-7-7-7-7-7-7--7-7-7-7| 
E.----------------------------------|.................................3x tudo acima 

e.-------5--------5-------5--------5|----------10------------10------------10------------10--| 
B.-------5--------5-------5--------5|----------12------------12------------12------------12--| 
G.-------5--------5-------5--------5|----------10------------10------------10------------10--| 
D.-------5--------5-------5--------5|-12-12-12-12---12-12-12-12---12-12-12-12---12-12-12-12--| 
A.-7-7-7-7--7-7-7-7-7-7-7-7--7-7-7-7|-10-10-10-10---10-10-10-10---10-10-10-10---10-10-10-10--| 
E.-5-5-5-5--5-5-5-5-5-5-5-5--5-5-5-5|--------------------------------------------------------| 

e.----------08------------08------------08------------08--| 
B.----------10------------10------------10------------10--| 
G.----------08------------08------------08------------08--| 
D.-10-10-10-10---10-10-10-10---10-10-10-10---10-10-10-10--| 
A.-08-08-08-08---08-08-08-08---08-08-08-08---08-08-08-08--| 
E.--------------------------------------------------------| 

e.-------7--------7-----7-.....|               | 
B.-------9--------9-----9-.....|               | 
G.-------7--------7-----7-.....|-7-5           | 
D.-9-9-9-9--9-9-9-9--9--9-.....|-7-5-----7-----| 
A.-7-7-7-7--7-7-7-7--7--7-.....|---------7-----| 
E.-----------------------------|---------5-----|...........................1x 

A-A-A-A-C-C-C-C-F-F-F-F-E-E-E-E 2x (power chords) Riff 2 

A-A-A-A-A-A-A-A-A-C-C-C-C-C-C-C-C-F-F-F-F-F-F-F-F-E-E-E-E-E-E-E-E 2x  Riff 3 

Solinho\/ 

e.--------------------------------------------------------------| 
B.--------------------------------------------------------------| 
G.------5-7----7bfull(9)p5-5------------------------------------| 
D.------5-7---------------7-7p5------3-3p2-----2-0h2p0h2p0h2p0h2| 
A.-0-0-0----0-0-------------------------------------------------| 
E.--------------------------------1-1-1---1p0-0-----------------| 

e.-------------------------------------------------------------| 
B.--------------------------------------------------------13---| 
G.------5-7----7bfull(9)p5-5------5-5--8--8---10-10---10----10-| 
D.------5-7---------------7-7p5---7b7b-10b10b-12b12b--12b---12b| 
A.-0-0-0----0-0------------------------------------------------| 
E.-------------------------------------------------------------| 

Riff 3 4x 

riff 2 2x 


A-A-A-A-A-C-C-C-C-C-C-G-G-G-G-G-D-D-D-D-D REFRÃO 4X 

Riff 3 2x 

Solinho denovo a base mantem na base do Riff 3 se for fazer 2 guita 

Riff 3 4x 

riff 2 2x  
share this page

See Also: