E-Chords
Richie Branson

Toonamisbackbitches(Tabs)

Richie Branson

roll up this ad to continue

Key: B
Standard Tuning (e B G D A e) 

Chords are F#m , Bm , D , A , Abm , C#m , E 
        e--2----7---10-5--4----(b9)---12-- |  
        B--2----7---10-5--4----(b9)---12-- |  
        G--2----7---11-6--4----(b9)---13-- |  
        D--4----(b9)--12-7--6----11---14-- |  
        A--4----(b9)--12-7--6----11---14-- |  
        E--2----7---10-5--4----(b9)---12-- |  
          
                     or 

           F#m , Bm , D , A , Abm , C#m , E 
        e--2----2---2--0--4----0----0-- |  
        B--2----3---3--2--4----2----0-- |  
        G--2----4---2--2--4----1----1-- |  
        D--4----4---0--2--6----2----2-- |  
        A--4----2------0--6---------2-- |  
        E--2--------------4---------0-- |  

Chords in order are: 

Verses (1 & 2) 1st Half F#m , Bm , D , A , Abm , F#m , Bm , D , A , Abm 
Verses (1 & 2) 2nd Half C#m , D , C#m , E , Bm , C#m , D , C#m , E , Bm 
Biss A , Bm , A , Abm , A , Bm , A , Abm 
Bascially It's... 

verse 1 
Chorus 
verse 2 
Chorus 
share this page

See Also: