E-Chords
Rex Brown

Train Song(Tabs)

Rex Brown

roll up this ad to continue

Intro/Main Riff Used Throughout the Song 

D|----------------------------------------| May need to toy with the open 
A|----------------------------------------| strumming to get the right pattern, 
F|----------------------------------------| really easy if you listen closely 
C|-------------0--------------------------| to the song. 
G|----------1h2---------------------------| 
C|--3p0-0000------------------------------| 

Verse 
D|----------------------------------------| Repeat as necessary, ending with the 
A|----------------------------------------| songs main riff, once again listen. 
F|----------------------------------------| 
C|--5-5-3s0-------------------------------| 
G|--5-5-3s0-------------------------------| 
C|--5-5-3s0-------------------------------| 

Chorus 
D|----------------------------------------| Then slide back down the neck and 
A|----------------------------------------| repeat the riff. 
F|----------------------------------------| 
C|--5-6-7--7-6-5--------------------------| 
G|--5-6-7--7-6-5--------------------------| 
C|--5-6-7--7-6-5--------------------------| 

Have not figured out the solo yet, so you're on your own for that. Hope this tab was of some assistance. 

************************************ 

| h  Hammer-on 
| p  Pull-off 

************************************ 
share this page

See Also: