E-Chords
Revolution Of Rock

Noite Fria(Tabs)

Revolution Of Rock

roll up this ad to continue

Key: Am
Baixo: (Gustavo) 

 
G|----------------------9------------------9---7--------------------------------------------10---9---7-----------| 
D|---7---7---9---10-------10---10--10--------------9---7------------10---9---7---------------------------10------| 
A|----------------------------------------------------------10---10--------------8---8--8------------------------| 
E|---------------------------------------------------------------------------------------------------------------| 
 

Verso: (Guitarra 1 - Cleyton) 

Am  C  G  F 

(Dueto baixo - Gustavo e guitarra 2 - Adriano) 
 
E|-----------------------12---------------12--10------------------------------------------------13--12--10----------| 
B|---10---10---12--13---------13---13--13---------12--10----------13---12---10-----------------------------13-------| 
G|---------------------------------------------------------12--12-----------------10---10--10-----------------------| 
D|------------------------------------------------------------------------------------------------------------------| 
A|------------------------------------------------------------------------------------------------------------------| 
E|------------------------------------------------------------------------------------------------------------------| 
 

Solo: (Guitarra 2 - Adriano) 

 
E|---------------------------------8~--------------------------------------------------------------------------------------------------| 
B|------------------------------8-----8/10-----------------------------------------------------------------------------10-13b15--------| 
G|---7/9--7-------------7--9--------7/9---5~--4/5---2~/10--12-12--10-12-12--10-12-12-10-12-12-10-12-12---------------------------------| 
D|-------------10~---10----------------------------------------------------------------------------------------------------------------| 
A|-------------------------------------------------------------------------------------------------------------------------------------| 
E|-------------------------------------------------------------------------------------------------------------------------------------| 
 

 
E|----------------------------10--13~\---------------| 
B|---15r13p10--------10--13--------------------------| 
G|---------------12----------------------------------| 
D|---------------------------------------------------| 
A|---------------------------------------------------| 
E|---------------------------------------------------| 
share this page

See Also: