E-Chords
Reverend Bizarre

The Wrath Of The War Elephants(Tabs)

Reverend Bizarre

roll up this ad to continue

Key: Bm
 

0:24 

 B5 
|------------------------------------| 
|------------------------------------| 
|--4---------------------------------| 
|--4---------------------------------| 
|--2---------------------------------| 
|------------------------------------|  

0:45-1:35 

 C5 B5 B5 A5 B5 C5 D5 B5 
|------------------------------------| 
|------------------------------------| 
|--5-4-4-2-4-5-7-4-------------------| 
|--5-4-4-2-4-5-7-4-------------------| 
|--3-2-2-0-2-3-5-2-------------------| 
|------------------------------------|  

 C5 B5 B5 A5 B5 E5 A5  
|------------------------------------| 
|------------------------------------| 
|--5-4-4-2-4-5-9---------------------| 
|--5-4-4-2-4-5-9-7-------------------| 
|--3-2-2-0-2-3-7-7-------------------| 
|----------------5-------------------| 

1:35-1:47 

 C5 B5 B5 A5 B5 B5 E5 D5 D5 F5 C5 C5 
|------------------------------------| 
|------------------------------------| 
|--5-4-4-2-4-4-9-7-7-10-5-5----------| 
|--5-4-4-2-4-4-9-7-7-10-5-5----------| 
|--3-2-2-0-2-2-7-5-5-8--3-3----------| 
|------------------------------------|  

 C5 B5 B5 A5 B5 B5 E5 D5 D5 F5  
|------------------------------------| 
|------------------------------------| 
|--5-4-4-2-4-4-9-7-7-10--------------| 
|--5-4-4-2-4-4-9-7-7-10--------------| 
|--3-2-2-0-2-2-7-5-5-8---------------| 
|------------------------------------|  

1:48 

 B5 
|------------------------------------| 
|------------------------------------| 
|--4---------------------------------| 
|--4---------------------------------| 
|--2---------------------------------| 
|------------------------------------|  

2:00-2:24 

 C5 B5 B5 A5 B5 C5 D5 B5 
|------------------------------------| 
|------------------------------------| 
|--5-4-4-2-4-5-7-4-------------------| 
|--5-4-4-2-4-5-7-4-------------------| 
|--3-2-2-0-2-3-5-2-------------------| 
|------------------------------------|  

 C5 B5 B5 A5 B5 E5 A5  
|------------------------------------| 
|------------------------------------| 
|--5-4-4-2-4-5-9---------------------| 
|--5-4-4-2-4-5-9-7-------------------| 
|--3-2-2-0-2-3-7-7-------------------| 
|----------------5-------------------| 

2:25-2:51 

 C5 B5 B5 A5 B5 B5 E5 D5 D5 F5 C5 C5 
|------------------------------------| 
|------------------------------------| 
|--5-4-4-2-4-4-9-7-7-10-5-5----------| 
|--5-4-4-2-4-4-9-7-7-10-5-5----------| 
|--3-2-2-0-2-2-7-5-5-8--3-3----------| 
|------------------------------------|  

 C5 B5 B5 A5 B5 B5 E5 D5 D5 F5  
|------------------------------------| 
|------------------------------------| 
|--5-4-4-2-4-4-9-7-7-10--------------| 
|--5-4-4-2-4-4-9-7-7-10--------------| 
|--3-2-2-0-2-2-7-5-5-8---------------| 
|------------------------------------|  

2:52 

 B5 
|------------------------------------| 
|------------------------------------| 
|--4---------------------------------| 
|--4---------------------------------| 
|--2---------------------------------| 
|------------------------------------|  

2:53-3:40 

Weird stuff in Bm. 

3:41-4:07 

 C5 B5 B5 A5 B5 B5 E5 D5 D5 F5 C5 C5 
|------------------------------------| 
|------------------------------------| 
|--5-4-4-2-4-4-9-7-7-10-5-5----------| 
|--5-4-4-2-4-4-9-7-7-10-5-5----------| 
|--3-2-2-0-2-2-7-5-5-8--3-3----------| 
|------------------------------------|  

 C5 B5 B5 A5 B5 B5 E5 D5 D5 F5  
|------------------------------------| 
|------------------------------------| 
|--5-4-4-2-4-4-9-7-7-10--------------| 
|--5-4-4-2-4-4-9-7-7-10--------------| 
|--3-2-2-0-2-2-7-5-5-8---------------| 
|------------------------------------|  

4:08-4:26 

 B5 C#5 D5 E5  
|------------------------------------| 
|------------------------------------| 
|--4-6-7-9---------------------------| 
|--4-6-7-9---------------------------| 
|--2-4-5-7---------------------------| 
|------------------------------------|  

4:27-5:52 

 B5 A5 C5  
|------------------------------------| 
|------------------------------------| 
|--4-2-5-----------------------------| 
|--4-2-5-----------------------------| 
|--2-0-3-----------------------------| 
|------------------------------------|  

 B5 C5 D5 G5 F G F B5  
|------------------------------------| 
|------------------------------------| 
|--4-5-7---------4-------------------| 
|--4-5-7-5-------4-------------------| 
|--2-3-5-5-------2-------------------| 
|--------3-2-3-2---------------------|  

 C5 
|------------------------------------| 
|------------------------------------| 
|--5---------------------------------| 
|--5---------------------------------| 
|--3---------------------------------| 
|------------------------------------|  

 B5 C5 D5 G5 F G F B5  
|------------------------------------| 
|------------------------------------| 
|--4-5-7---------4-------------------| 
|--4-5-7-5-------4-------------------| 
|--2-3-5-5-------2-------------------| 
|--------3-2-3-2---------------------|  

 B5 C5 
|------------------------------------| 
|------------------------------------| 
|--4-5-------------------------------| 
|--4-5-------------------------------| 
|--2-3-------------------------------| 
|------------------------------------|  

 B5 C5 D5 G5 F G F B5  
|------------------------------------| 
|------------------------------------| 
|--4-5-7---------4-------------------| 
|--4-5-7-5-------4-------------------| 
|--2-3-5-5-------2-------------------| 
|--------3-2-3-2---------------------|  
  
 C5 
|------------------------------------| 
|------------------------------------| 
|--5---------------------------------| 
|--5---------------------------------| 
|--3---------------------------------| 
|------------------------------------|  

 B5 C5 D5 G5 F# G F# B5  
|------------------------------------| 
|------------------------------------| 
|--4-5-7---------4-------------------| 
|--4-5-7-5-------4-------------------| 
|--2-3-5-5-------2-------------------| 
|--------3-2-3-2---------------------|  

5:53-6:38  
share this page

See Also: