E-Chords
Reverend Bizarre

Strange Horizon(Tabs)

Reverend Bizarre

roll up this ad to continue

Key: C#
 Tuning: C# F# B E G# c# 

INTRO 
c#||---------------------------------|| 
G#||---------------------------------|| 
E ||---------------------------------|| 
B ||-9-9-9-9-9-9-9-9-9-9-9-9-9-9-9-9-|| 
F#||---------------------------------|| 
C#||---------------------------------|| 4x 

RIFF I 
    (----- Play 3x -----) 
c#||---------------------|---------------------|| 
G#||---------------------|---------------------|| 
E ||---------------------|---------------------|| 
B ||---------------------|---------------------|| 
F#||-9--9--7-9-----------|-7----7/9-5----------|| 
C#||-7--7--5-7-----------|-5----5/7-3----------|| 2x 

RIFF II 
c#||--------------------------------------|| 
G#||--------------------------------------|| 
E ||--------------------------------------|| 
B ||--------------------------------------|| 
F#||-9----9----------9\-4------5----------|| 
C#||-7----7----------7\-2------3----------|| 2x 

RIFF I 
    (----- Play 3x -----) 
c#||---------------------|---------------------|| 
G#||---------------------|---------------------|| 
E ||---------------------|---------------------|| 
B ||---------------------|---------------------|| 
F#||-9--9--7-9-----------|-7----7/9-5----------|| 
C#||-7--7--5-7-----------|-5----5/7-3----------|| 2x 

RIFF II 
c#||--------------------------------------|| 
G#||--------------------------------------|| 
E ||--------------------------------------|| 
B ||--------------------------------------|| 
F#||-9----9----------9\-4------5----------|| 
C#||-7----7----------7\-2------3----------|| 4x 

RIFF III 
(Bass plays solo on first time) 
   (-------- Play 3x --------) 
c#|---------------------------|--------------------------------| 
G#|---------------------------|--------------------------------| 
E |---------------------------|--------------------------------| 
B |-----------7-9--7----------|-----------7-9b--9b--9b--9b--9b-| 
F#|-9--9--7-9---------9--7--9-|-9--9--7-9----------------------| 
C#|-7--7----------------------|-7--7---------------------------| 

verse 1 (Riff IV) 
    (--------- Play 3x ----------) 
c#||------------------------------|---------------------|| 
G#||------------------------------|---------------------|| 
E ||------------------------------|---------------------|| 
B ||-4--4--4---4-9--6--7--7-6/7\4-|---------------------|| 
F#||-2--2--2p0-2-7--4--5--5-4/5\4-|-7----7/9-5----------|| 
C#||------------------------------|-5----5/7-3----------|| 2x 
     Baby don't be 'fraid 
     Even though it's late 
     I can lead our path 
                                    There's no time to lose! 
     Hand in hand we'll go 
     Into the land below 
     Where we can be free 
                                    There's no time to lose! 

RIFF III 
   (-------- Play 3x --------) 
c#|---------------------------|--------------------------------| 
G#|---------------------------|--------------------------------| 
E |---------------------------|--------------------------------| 
B |-----------7-9--7----------|-----------7-9b--9b--9b--9b--9b-| 
F#|-9--9--7-9---------9--7--9-|-9--9--7-9----------------------| 
C#|-7--7----------------------|-7--7---------------------------| 

verse 2 
    (--------- Play 3x ----------) 
c#||------------------------------|---------------------|| 
G#||------------------------------|---------------------|| 
E ||------------------------------|---------------------|| 
B ||-4--4--4---4-9--6--7--7-6/7\4-|---------------------|| 
F#||-2--2--2p0-2-7--4--5--5-4/5\4-|-7----7/9-5----------|| 
C#||------------------------------|-5----5/7-3----------|| 2x 
     Run by my side 
     In search of distant light 
     Pointing our way 
                                    Soon the dreams will come! 
     In the eyes of child 
     Fear towards the night 
     Long way to the sun 
                                    Soon the dreams will come! 
                                        Beyond the Strange Horizon! 

RIFF II 
c#||--------------------------------------|| 
G#||--------------------------------------|| 
E ||--------------------------------------|| 
B ||--------------------------------------|| 
F#||-9----9----------9\-4------5----------|| 
C#||-7----7----------7\-2------3----------|| 2x 

BASS INTERLUDE 
(Guitar rests) 

RIFF V 
c#||---------------------------------------------------------|| 
G#||---------------------------------------------------------|| 
E ||---------------------------------------------------------|| 
B ||---------------------------------------------------------|| 
F#||-7/9-9-9-9-9-9-9-7/9-9-9-9-9-9-9-4---4-4---4--5-5--5--5--|| 
C#||-5/7-7-7-7-7-7-7-5/7-7-7-7-7-7-7-2---2-2---2--3-3--3--3--|| 4x 

RIFF III 
   (-------- Play 3x --------) 
c#|---------------------------|--------------------------------| 
G#|---------------------------|--------------------------------| 
E |---------------------------|--------------------------------| 
B |-----------7-9--7----------|-----------7-9b--9b--9b--9b--9b-| 
F#|-9--9--7-9---------9--7--9-|-9--9--7-9----------------------| 
C#|-7--7----------------------|-7--7---------------------------| 

RIFF IV 
   (--------- Play 3x ----------) 
c#|------------------------------|-------------------------| 
G#|------------------------------|-------------------------| 
E |------------------------------|-------------------------| 
B |-4--4--4---4-9--6--7--7-6/7\4-|-------------------------| 
F#|-2--2--2p0-2-7--4--5--5-4/5\4-|-7----7/9-5--------------| 
C#|------------------------------|-5----5/7-3--------------| 

verse 3 
    (--------- Play 3x ----------) 
c#||------------------------------|---------------------|| 
G#||------------------------------|---------------------|| 
E ||------------------------------|---------------------|| 
B ||-4--4--4---4-9--6--7--7-6/7\4-|---------------------|| 
F#||-2--2--2p0-2-7--4--5--5-4/5\4-|-7----7/9-5----------|| 
C#||------------------------------|-5----5/7-3----------|| 2x 
     Walk the road of death 
     Try to save your breath 
     Soon we'll face our Lord 
                                    We leave this world behind! 
     Free among the dead 
     From sins we once plead 
     Eternal is our love 
                                    We leave this world behind! 

RIFF II 
c#||--------------------------------------|| 
G#||--------------------------------------|| 
E ||--------------------------------------|| 
B ||--------------------------------------|| 
F#||-9----9----------9\-4------5----------|| 
C#||-7----7----------7\-2------3----------|| 3x 

c#|---------------------------------------------| 
G#|---------------------------------------------| 
E |---------------------------------------------| 
B |---------------------------------------------| 
F#|-9----9--------9---7---5---4------5----------| 
C#|-7----7--------7---5---3---2------3----------| 

RIFF VI 
(Lead) 
c#||------------------------------------------|| 
G#||------------------------------------------|| 
E ||------9--7--6--7--6-----------------------|| 
B ||-9-------------------9--------------9-7---|| 
F#||------------------------------------------|| 
C#||------------------------------------------|| 2x 

c#|------------------------------------------| 
G#|------------------7-----------------------| 
E |------9--7--6--7--------------------------| 
B |-9-------------------9--------------9-7---| 
F#|------------------------------------------| 
C#|------------------------------------------| 

c#|------------------------------------------| 
G#|------------------------------------------| 
E |------9--7--6--7--6-----------------------| 
B |-9-------------------9--------------9-7---| 
F#|------------------------------------------| 
C#|------------------------------------------| 

(Rhythm) 
c#||--------------------------------------|| 
G#||--------------------------------------|| 
E ||--------------------------------------|| 
B ||--------------------------------------|| 
F#||-9--------7------5--------------5-7---|| 
C#||-7--------5------3--------------3-5---|| 4x 

RIFF II 
c#||--------------------------------------|| 
G#||--------------------------------------|| 
E ||--------------------------------------|| 
B ||--------------------------------------|| 
F#||-9----9----------9\-4------5----------|| 
C#||-7----7----------7\-2------3----------|| 2x 

verse 4 
(Lead) 
c#||------------------------------------------|| 
G#||------------------------------------------|| 
E ||------9--7--6--7--6-----------------------|| 
B ||-9-------------------9--------------9-7---|| 
F#||------------------------------------------|| 
C#||------------------------------------------|| 2x 
     Blessed be those within grief 
     I invite you to relief 

c#|------------------------------------------| 
G#|------------------7-----------------------| 
E |------9--7--6--7--------------------------| 
B |-9-------------------9--------------9-7---| 
F#|------------------------------------------| 
C#|------------------------------------------| 
    Leave your pain to the earth 

c#|------------------------------------------| 
G#|------------------------------------------| 
E |------9--7--6--7--6-----------------------| 
B |-9-------------------9--------------9-7---| 
F#|------------------------------------------| 
C#|------------------------------------------| 
    Under the tombstone is birth 
                        You just gotta believe! 

RIFF I 
    (----- Play 3x -----) 
c#||---------------------|---------------------|| 
G#||---------------------|---------------------|| 
E ||---------------------|---------------------|| 
B ||---------------------|---------------------|| 
F#||-9--9--7-9-----------|-7----7/9-5----------|| 
C#||-7--7--5-7-----------|-5----5/7-3----------|| 2x 
(Verse starts on 2nd time) 
     Baby don't be 'fraid! 
     Even though it's late! 
     I can lead our path! 
                           There's no time to lose! 

OUTRO 
c#||---------------------------------------| 
G#||---------------------------------------| 
E ||---------------------------------------| 
B ||-4--------11--------12--------9--------| 
F#||-2--------9---------10--------7--------| 
C#||---------------------------------------| 

c#|----------------------------------------|| 
G#|----------------------------------------|| 
E |----------------------------------------|| 
B |-4--------11--------9--------6--7--6----|| 
F#|-2--------9---------7--------4--5--4----|| 
C#|----------------------------------------|| 4x 
                                There's no time to lose! 
                                        Baby no time! 

c#|----------------------------------| 
G#|----------------------------------| 
E |----------------------------------| 
B |-4--------------------------------| 
F#|-2--------------------------------| 
C#|----------------------------------| 



************************************ 

| /   slide up 
| \   slide down 
| //  scrape up 
| \\  scrape down 
| h   hammer-on 
| p   pull-off 
| ~   vibrato 
| +   harmonic 
| x   Mute note 
| b   Bend 
| pb  Pre-bend 
| br  Bend release 
| pbr Pre-bend release 
| brb Bend release bend 

************************************ 
share this page

See Also: