E-Chords
Reuben

Scared Of The Police(Tabs)

Reuben

Key: D
Riff 1 

D#|--------------------------------------------------------| 
A#|--------------------------------------------------------| 
F#|--------------------------------------------------------| 
C#|----1-1--1-1-1--1-1--1-1-1--1-1--1-1-1--6-6-6-9-9-9-9-9-| 
G#|----1-1--1-1-1--1-1--1-1-1--1-1--1-1-1--6-6-6-9-9-9-9-9-| 
C#|----1-1--1-1-1--1-1--1-1-1--1-1--1-1-1--6-6-6-9-9-9-9-9-| 

Riff 2 

D#|----------------------------------------------------------------------| 
A#|----------------------------------------------------------------------| 
F#|----------------------------------------------------------------------| 
C#|----66666666555555551111111155555555-66666666555555551111111133333333-| 
G#|----66666666555555551111111155555555-66666666555555551111111133333333-| 
C#|----66666666555555551111111155555555-66666666555555551111111133333333-| 

Verse 

D#|-------------|
A#|----8-8-8-8--| 
F#|-----8-8-8-8-| 
C#|-------------| 
G#|-------------| 
C#|-------------| 

Interlude 

D#|-------------------------------------------------------------------------------------------------| 
A#|-------------------------------------------------------------------------------------------------|
F#|-------------------------------------------------------------------------------------------------| 
C#|----1-1--10h12--1--1-1-1---3-3--3-3--6-6--6-6----1-1--10h12--1--1-1-1---66666555551111133333-----| 
G#|----1-1--10h12--1--1-1-1---3-3--3-3--6-6--6-6----1-1--10h12--1--1-1-1---66666555551111133333-----| 
C#|----1-1--10h12--1--1-1-1---3-3--3-3--6-6--6-6----1-1--10h12--1--1-1-1---66666555551111133333-----| 

Solo 

D#|----------------------------------------------------------------------------------| 
A#|----14-14-14-14-14-14-14-14----------------14-14-14-14-14-14-14-14----------------| 
F#|----------------------------12-12-12-13-12-------------------------12-12-12-13-15-| 
C#|----------------------------------------------------------------------------------| 
G#|----------------------------------------------------------------------------------| 
C#|----------------------------------------------------------------------------------| 

roll up this ad to continue

share this page

See Also: