E-Chords
Red Zebra

I Can't Live In A Living Room(Tabs)

Red Zebra

roll up this ad to continue

----------------------------------------------------------------------------------------------------------| 
----------------------------------------------------------------------------------------------------------| 
----------------------------------------------------------------------------------------------------------| 
---------------------------------------------------15-14-0-0-14-15-0-0-14-15-0-0-14-15-0-0----------------| 
--0-0-14-15-0-0-14-15-0-0-14-15-0-0-------------------------------------------------------------15-14-----| 
----------------------------------------------------------------------------------------------------------| 

----------------------------------------------------------------------------------------------------------| 
----------------------------------------------------------------------------------------------------------| 
----------------------------------------------------------------------------------------------------------| 
-----------------------------------------------15-14-0--12--0-0-0-14--0--0--12--0-0-0---------------------| 
--0--12--0-0-0-14--0--0--12--0-0-0------------------------------------------------------------15-14-------| 
----------------------------------------------------------------------------------------------------------| 

repeat 

break: 
----------------------------------------------------------------------| 
----------------------------------------------------------------------| 
--2--2--2-2--...----9/2--2-2---2--2-2-----2-----2-----2-----2---------| 
--2--2--2-2--...----9/2--2-2---2--2-2---------------------------------| 
--0--0--0-0--...---------0-0---0--0-0--0-----0-----0-----0------------| 
----------------------------------------------------------------------| 

back to riff1 

end: 
---------------------------------------------------------------------------------------------| 
---------------------------------------------------------------------------------------------| 
---------------------------------------------------------------------------------------------| 
-0-0-0---------------------------------------------------------15-14-0-0-14-15-0-0-14-15-----| 
-------3-3-3--0-0-14-15-0-0-14-15-0-0-14-15-0-0----------------------------------------------| 
---------------------------------------------------------------------------------------------| 

                       '...more.' 
-----------------------------------------------------------------------| 
-----------------------------------------------------------------------| 
---------------------------2-------------------------------------------| 
-0-0-0--------0-0-0--------2-------------------------------------------| 
-------3-3-3--------3-3-3--0-------------------------------------------| 
-----------------------------------------------------------------------| 
share this page

See Also: