E-Chords
Ratatat

Abrasive(Tabs)

Ratatat

Key: B
Ratatat - Abrasive 

Intro X2 

10-8-----8-10-8----------------------|10----10-11--11-10--10---------------| 
|-----11-----------10----11-10--11-13|----11------------13--13--11-13-11-13| 
|--------------------11------12------|-------------------------------------| 
|------------------------------------|-------------------------------------| 
|------------------------------------|-------------------------------------| 
|------------------------------------|-------------------------------------| 
  
 |       |       |       |        |       |       |       |         
|10--------------10-11-----------------|--------------------------------| 
|--10-11-10--10-------11-10------------|--------------------------------| 
|----------12--------------12-10-------|--------------------------------| 
|-------------------------------12-10--|--------------------------------| 
|------------------------------------13|--------------------------------| 
|--------------------------------------|--------------------------------| 



Verse 

B Cm Gm Gm 
B Cm F B Cm 

Guitar Riff  

--10---------10------------------| 
----13-11--13--11----------------| 
12-------12----------------------| 
---------------------------------| 
---------------------------------| 
---------------------------------| 
  
 |       |       |       |        |       |       |       |         
|----10---------10-----10------------|---------------------------------| 
|------13-11--13--13-13-------11-11--|11-13----------------------------| 
|--12-------12-----------10-10-------|-----12--------------------------| 
|------------------------------------|---------------------------------| 
|------------------------------------|---------------------------------| 
|------------------------------------|---------------------------------| 

roll up this ad to continue

share this page

See Also: